Oops, an error
Loading. Please wait.

Ashtray Petting Zoo Tab

7,357 views 15 this week
no commentswrite comment
1 2 3 4 5
excellent!
x 5
add to favorites
launch autoscroll
font size
0
reset
how to read this tab
guitar tuner
Autoscroll
slow
fast
+/-
esc
set tempo
stop
Help us to improve Ultimate-Guitar.com Take our survey!
×
-------------------------------------------------------------------------------
                             Ashtray Petting Zoo – Joyce Manor
-------------------------------------------------------------------------------
Tabbed by: Kate Doxey
Email:

Tuning: Standard

        Intro x2
e|-------------------------------------------------------------------------|
B|-------------------------------------------------------------------------|
G|-------------------------------------------------------------------------|
D|--9-9-9-6----7-7-7-6-----4-4-4-4-4-4-6-6-6-4-4-4-------------------------|
A|--7-7-7-7-x4-7-7-7-7-x4--6-6-6-6-6-6-6-6-6-6-6-6--2-2-2-4-4-4-6-6-6-4-4--|
E|--0-0-0-0-----------------------------------------0-0-0-0-0-0-0-0-0-0-0--|

e|-------------------------------------------------------------------------|
B|-------------------------------------------------------------------------|
G|-------------------------------------------------------------------------|
D|--9-9-9-6----7-7-7-6-----4-4-4-4-4-4-6-6-6-4-4-4-------------------------|
A|--7-7-7-7-x4-7-7-7-7-x4---------------------------2-2-2-4-4-4-6-6-6-4-4--|
E|--0-0-0-0----------------2-2-2-2-2-2-4-4-4-2-2-2--0-0-0-0-0-0-0-0-0-0-0--|

        Verse   
          Palm muted
e|-------------------------------------------------------------------------|
B|-------------------------------------------------------------------------|
G|-------------------------------------------------------------------------|
D|-------------------------------------------------------------------------|
A|--2------7------7------7---------2------7------7------9------------------|
E|--0------4------5------0---------0------4------5------7------------------|

        Pre-chorus
e|-------------------------------------------------------------------------|
B|-------------------------------------------------------------------------|
G|-------------------------------------------------------------------------|
D|--------4-----------4-----2----------------------------------------------|
A|--4-----2-----4-----2-----0----------------------------------------------|
E|--2-----------2----------------------------------------------------------|

        Chorus
e|-------------------------------------------------------------------------|
B|--------------------------------4----------------4-----------------------|
G|---9--9-8-6-1--6-4-1-2-2/5--5-6---6-5-6-5-6--5-6---6-5-6-5-6-------------|
D|-------------------------------------------------------------------------|
A|-------------------------------------------------------------------------|
E|-------------------------------------------------------------------------|

e|-----------------------------------7------------9-7----------------------|
B|---5--9-7-5-4--12-10-9-7-7/12--8-9---9-8-9-8-9--9-9----------------------|
G|-------------------------------------------------------------------------|
D|-------------------------------------------------------------------------|
A|-------------------------------------------------------------------------|
E|-------------------------------------------------------------------------|

        Verse   
          Palm muted
e|-------------------------------------------------------------------------|
B|-------------------------------------------------------------------------|
G|-------------------------------------------------------------------------|
D|-------------------------------------------------------------------------|
A|--2------7------7------7---------2------7------7------9------------------|
E|--0------4------5------0---------0------4------5------7------------------|

        Pre-chorus
e|-------------------------------------------------------------------------|
B|-------------------------------------------------------------------------|
G|-------------------------------------------------------------------------|
D|--------4-----------4-----2----------------------------------------------|
A|--4-----2-----4-----2-----0----------------------------------------------|
E|--2-----------2----------------------------------------------------------|

        Outro x2        
e|-------------------------------------------------------------------------|
B|-------------------------------------------------------------------------|
G|-------------------------------------------------------------------------|
D|--22--65---77--65---99--76---77--65--------------------------------------|
A|--22--65---77--65---99--76---77--65--------------------------------------|
E|--00--43--055--43--077--54--055--43--------------------------------------|


e|-------------------------------------------------------------------------|
B|-------------------------------------------------------------------------|
G|-------------------------------------------------------------------------|
D|--2222222222222----------------------------------------------------------|
A|--2222222222222----------------------------------------------------------|
E|--0000000000000----------------------------------------------------------|


************************************

| /   slide up
| \   slide down
| h   hammer-on
| p   pull-off
| ~   vibrato
| +   harmonic
| x   Mute note
| b   Bend
| pb  Pre-bend
| br  Bend release
| pbr Pre-bend release
| brb Bend release bend

************************************
Suggest correction
comments
print report bad tab
guest
You may want to rate the tab now too:
select rating
Please do not post tabs as comments. Select "correction" instead!