Oops, an error
Loading. Please wait.

Beach Community Bass Tab

version 1
version 1

Whole song

6,230 views 18 this week
no commentswrite comment
1 2 3 4 5
accurate
x 7
add to favorites
launch autoscroll
font size
0
reset
guitar tuner
Tab Pro tools
  • play this tab
  • loop segment
  • change instrument
  • show fretboard
  • metronome
×
Best way to learn
"Beach Community"
Autoscroll
slow
fast
+/-
esc
set tempo
stop
Contributor
-------------------------------------------------------------------------------
                             BEACH COMMUNITY - Joyce Manor
-------------------------------------------------------------------------------

Tabbed By : hojobojo
e-mail: 

Tuning:EADG


G|---------------------------------------------------------------------------|
D|-----666---6--------------------666---6------------------------------------|
A|--777---777-76-444444444424--777---777-76-444444444424---------------------|
E|---------------------------------------------------------------------------|

G|---------------------------------------------------------------------------|
D|---------------------------------------------------------------------------|
A|---------------------------------------------------------------------------|
E|--000000000000-555555555555-000000000000-555555555555----------------------|

G|---------------------------------------------------------------------------|
D|---------------------------------------------------------------------------|
A|--444777444742-777000444222--444777444742-777000444222---------------------|
E|---------------------------------------------------------------------------|

G|---------------------------------------------------------------------------|
D|---------------------------------------------------------------------------|
A|--444444444444--------------444444444444-----------------------------------|
E|---------------000000000000--------------000000000000----------------------|

G|---------------------------------------------------------------------------|
D|---------------------------------------------------------------------------|
A|--444444444444--------------444444444444-222222222222----------------------|
E|---------------000000000000------------------------------------------------|

G|---------------------------------------------------------------------------|
D|---------------------------------------------------------------------------|
A|--------222222444444-------------222222444444------------------------------|
E|--000000------------555555-000000------------555555------------------------|

G|---------------------------------------------------------------------------|
D|---------------------------------------------------------------------------|
A|--------222222444444-------------222222444444------------------------------|
E|--000000------------555555-000000------------555555------------------------|

G|---------------------------------------------------------------------------|
D|---------------------------------------------------------------------------|
A|--444777444742--------------444777444749-222222222222----------------------|
E|---------------000000000000------------------------------------------------|

G|---------------------------------------------------------------------------|
D|---------------------------------------------------------------------------|
A|--7-7----------------------------------------------------------------------|
E|------5-4-0~---------------------------------------------------------------|


| /  slide up
| \  slide down
| h  hammer-on
| p  pull-off
| ~  vibrato
| +  harmonic
| x  Mute note
===============================================================================
comments
print report bad tab
I want to post or [tab]
guest
You may want to rate the tab now too:
select rating
Please do not post tabs as comments. Select "correction" instead!