Oops, an error
Loading. Please wait.

Beach Community bass

version 3
version 3

Whole song

4,109 views 3 this week
no commentswrite comment
1 2 3 4 5
3 more votes to show rating
add to favorites
×
Save as Personal and add changes to this tab that will be seen only by you. Learn more ›
×
You can save this tab as Personal to edit and correct it or add notes. All changes will be seen only by you. Learn more »
launch autoscroll
font size
0
reset
guitar tuner
edit
Autoscroll
slow
fast
+/-
esc
set tempo
stop
Author
Difficulty
-------------------------------------------------------------------------------
                          Beach Community - Joyce Manor
-------------------------------------------------------------------------------\
Tabbed by: dash219

Tuning: standard

(0:01)
G-------1-1-1-------1-----------------------------|
D-2-2-2-------2-2-2---2-1-------2-2-2-------------|
A-------------------------4-4-4-------4-4-4-2-4-2-|
E-------------------------------------------------|

(0:07)
G-------1-1-1-------1-----------------------------|
D-2-2-2-------2-2-2---2-1-------2-2-2-------------|
A-------------------------4-4-4-------4-4-4-2-4-2-|
E-------------------------------------------------|

(0:13) (play heavily palm muted)
I lost it all community where it was lost is not...
G-------------------------------------------------|
D-2-2-2-2-2-2-2-2-2-2-2-2-------------------------|
A-------------------------4-4-4-4-4-4-4-4-4-4-4-4-|
E-------------------------------------------------|

(0:19) (play heavily palm muted)
Over the sidewalk...     call the police, told me...
G-------------------------------------------------|
D-2-2-2-2-2-2-2-2-2-2-2-2-------------------------|
A-------------------------4-4-4-4-4-4-4-4-4-4-4-4-|
E-------------------------------------------------|

(0:24)
G-------------------------------------------------|
D-------2-2-2-------2-----------------------------|
A-4-4-4-------4-4-4---4-2-4-4-4-0-0-0-4-4-4-2-2-2-|
E-------------------------------------------------|

(0:30)
G-------------------------------------------------|
D-------2-2-2-------2-----------------------------|
A-4-4-4-------4-4-4---4-2-4-4-4-0-0-0-4-4-4-2-2-2-|
E-------------------------------------------------|

(0:35)
Wait for your cue...     I torch up your house...
G-------------------------------------------------|
D-------------------------2-2-2-2-2-2-2-2-2-2-2-2-|
A-4-4-4-4-4-4-4-4-4-4-4-4-------------------------|
E-------------------------------------------------|

(0:41)
What can you do when...  It’s hard to admit but...
G-------------------------------------------------|
D-------------------------2-2-2-2-2-2-2-2-2-2-2-2-|
A-4-4-4-4-4-4-4-4-4-4-4-4-------------------------|
E-------------------------------------------------|

(0:47)
Alone.             You’re always, always feeling
G-------------------------------------------------|
D-------------------------2-2-2-2-2-2-2-2-2-2-2-2-|
A-4-4-4-4-4-4-4-4-4-4-4-4-------------------------|
E-------------------------------------------------|

(0:53)
Alone.            You’re aaaaaaaaaaaaalways just a
G-------------------------------------------------|
D-------------------------2-2-2-2-2-2-2-2-2-2-2-2-|
A-4-4-4-4-4-4-4-4-4-4-4-4-------------------------|
E-------------------------------------------------|

(0:59)
Few miles down as the streets count backwards, I realize it’s true
G-------------------------------------------------------------------------|
D-------------------------------------------------------------------------|
A-2-2-2-2-2-2-------------2-2-2-2-2-2-------------2-2-2-2-2-2-------------|
E-------------4-4-4-4-4-4-------------4-4-4-4-4-4-------------4-4-4-4-4-4-|

(1:07)
Everything reminds me of- few miles down as the streets, count backwards
G-------------------------------------------------------------------------|
D-------------------------------------------------------------------------|
A-2-2-2-2-2-2-------------2-2-2-2-2-2-------------2-2-2-2-2-2-------------|
E-------------4-4-4-4-4-4-------------4-4-4-4-4-4-------------4-4-4-4-4-4-|

(1:16)
I realize it’s true. Everything reminds me of you.
G-------------------------------------------------|
D-------------------------------------------------|
A-2-2-2-2-2-2-------------2-2-2-2-2-2-------------|
E-------------4-4-4-4-4-4-------------4-4-4-4-4-4-|

(1:22)                  Everything reminds me of you
G-----------------------------------------------|
D-------2-2-2-------2---------------------------|
A-4-4-4-------4-4-4---4-2-2-2-2-2-2-2-2-2-2-2-2-|
E-----------------------------------------------|

(1:28)                  Everything reminds me.
G-----------------------------------------------|
D-------2-2-2-------2---------------------------|
A-4-4-4-------4-4-4---4-2-2-2-2-2-2-2-2-2-2-2-2-|
E-----------------------------------------------|

(1:33)
G-1-1-1-1-1-1----------------|
D-------------2-----1-----2~-|
A----------------------------|
E----------------------------|

| /  slide up
| \  slide down
| h  hammer-on
| p  pull-off
| ~  vibrato
| +  harmonic
| x  Mute note
===============================================================================

            
            
Suggest correction
Creating personal tab
Creating personal tab
You can edit any tab online and save it as your Personal.

You can edit, replace or remove any tab part or add personal notes – all changes will be seen only by you.

Personal tabs can be accessed anytime from any device, even offline.
Learn more »
Give kudos to tab author, rate the tab!
1 2 3 4 5
comments
print report bad tab
guest
You may want to rate the tab now too:
select rating
Wanna post a correction for this tab? Suggest correction