Oops, an error
Loading. Please wait.

Bride Of Usher Tab

version 1
version 1

Whole song

3,332 views 15 this week
no commentswrite comment
1 2 3 4 5
excellent!
x 5
add to favorites
launch autoscroll
font size
0
reset
how to read this tab
guitar tuner
Autoscroll
slow
fast
+/-
esc
set tempo
stop
Help us to improve Ultimate-Guitar.com Take our survey!
×
-----------------------------------------------------------------------------
                             BRIDE OF USHER - Joyce Manor
-----------------------------------------------------------------------------


Verse: x2
e|-------------------------------|-------------------------------|
B|-------------------------------|-------------------------------|
G|-6-x6-x6-66-666-6-x6-x6-66-666-|-2-x2-x2-22-222-2-x2-x2-22-222-|
D|-7-x7-x7-77-777-7-x7-x7-77-777-|-4-x4-x4-44-444-4-x4-x4-44-444-|
A|-7-x7-x7-77-777-7-x7-x7-77-777-|-4-x4-x4-44-444-4-x4-x4-44-444-|
E|-5-x5-x5-55-555-5-x5-x5-55-555-|-2-x2-x2-22-222-2-x2-x2-22-222-|
 |                               |                               |
e|----12129-----------12129------|-------------------------------|
B|-1010----10--10-1010-----10--10|-9--------------9-----10-------|
G|-----------11--------------11--|-------11----------------------|
D|-------------------------------|-------------------------------|
A|-------------------------------|-------------------------------|
E|-------------------------------|-------------------------------|
  *all 10s, 11s, and 12s, sorry for the clutter

e|-------------------------------|-2-x2-x2-22-222-2-x2-x2-22-222-|
B|-3-x3-x3-33-333-3-x3-x3-33-333-|-3-x3-x3-33-333-3-x3-x3-33-333-|
G|-4-x4-x4-44-444-4-x4-x4-44-444-|-2-x2-x2-22-222-2-x2-x2-22-222-|
D|-4-x4-x4-44-444-4-x4-x4-44-444-|-0-x0-x0-00-000-0-x0-x0-00-000-|
A|-2-x2-x2-22-222-2-x2-x2-22-222-|-------------------------------|
E|-------------------------------|-------------------------------|
 |                               |                               |
e|-------------------------------|-------------------------------|
B|-------------------------------|-------------------------------|
G|-9--9-119-7-6-7-9--9-119-7-6-7-|-6--------------6--------------|
D|-------------------------------|-------7-----------------------|
A|-------------------------------|-------------------------------|
E|-------------------------------|-------------------------------|

Chorus:
e|-------------------------------|-------------------------------|
B|-------------------------------|-------------------------------|
G|-6-x6-x6-66-666-6-x6-x6-66-666-|-6-x6-x6-66-666-6-x6-x6-66-666-|
D|-7-x7-x7-77-777-7-x7-x7-77-777-|-7-x7-x7-77-777-7-x7-x7-77-777-|
A|-7-x7-x7-77-777-7-x7-x7-77-777-|-7-x7-x7-77-777-7-x7-x7-77-777-|
E|-5-x5-x5-55-555-5-x5-x5-55-555-|-5-x5-x5-55-555-5-x5-x5-55-555-|
 |                               |                               |
e|-------------------------------|-------------------------------|
B|---------5-7-5----------5-7-5--|---------5-7-5----------5-7-5--|
G|-6-----6--------6-----6--------|-6-----6--------6-----6--------|
D|---7--------------7------------|---7--------------7------------|
A|-------------------------------|-------------------------------|
E|-------------------------------|-------------------------------|

e|-------------------------------|-2-x2-x2-22-222-1-x1-x1-11-111-|-----|
B|-------------------------------|-3-x3-x3-33-333-3-x3-x3-33-333-|-----|
G|-1-x1-x1-11-111-1-x1-x1-11-111-|-2-x2-x2-22-222-2-x2-x2-22-222-|-6---|
D|-2-x2-x2-22-222-2-x2-x2-22-222-|-0-x0-x0-00-000-0-x0-x0-00-000-|-7---|
A|-2-x2-x2-22-222-2-x2-x2-22-222-|-------------------------------|-7---|
E|-0-x0-x0-00-000-0-x0-x0-00-000-|-------------------------------|-5---|
 |                               |                               |     |
e|------7-7-7----------7-7-7-----|------5-5-5----------5-5-5-----|-----|
B|-9--9-------9-9-9--9-------9-9-|-7--7-------7-7-6--6-------6-6-|-----|
G|-------------------------------|-------------------------------|-6---|
D|-------------------------------|-------------------------------|-----|
A|-------------------------------|-------------------------------|-----|
E|-------------------------------|-------------------------------|-----|



Outro:
e|-------------------------------|-------------------------------|
B|-------------------------------|-------------------------------|
G|-6-x6-x6-66-666-6-x6-x6-66-666-|-1-x1-x1-11-111-1-x1-x1-11-111-|
D|-7-x7-x7-77-777-7-x7-x7-77-777-|-2-x2-x2-22-222-2-x2-x2-22-222-|
A|-7-x7-x7-77-777-7-x7-x7-77-777-|-2-x2-x2-22-222-2-x2-x2-22-222-|
E|-5-x5-x5-55-555-5-x5-x5-55-555-|-0-x0-x0-00-000-0-x0-x0-00-000-|
 |                               |                               |
e|-------------------------------|-------------------------------|
B|---------5-7-5----------5-7-5--|---------5-7-5----------5-7-5--|
G|-6-----6--------6-----6--------|-6-----6--------6-----6--------|
D|---7--------------7------------|---7--------------7------------|
A|-------------------------------|-------------------------------|
E|-------------------------------|-------------------------------|


e|-2-x2-x2-22-222-2-x2-x2-22-222-|-------------------------------|
B|-3-x3-x3-33-333-3-x3-x3-33-333-|-------------------------------|
G|-2-x2-x2-22-222-2-x2-x2-22-222-|-1-x1-x1-11-111-1-x1-x1-11-111-|
D|-0-x0-x0-00-000-0-x0-x0-00-000-|-2-x2-x2-22-222-2-x2-x2-22-222-|
A|-------------------------------|-2-x2-x2-22-222-2-x2-x2-22-222-|
E|-------------------------------|-0-x0-x0-00-000-0-x0-x0-00-000-|
 |                               |                               |
e|-------------------------------|-------------------------------|
B|---------5-7-5----------5-7-5--|---------5-7-5----------5-7-5--|
G|-6-----6--------6-----6--------|-6-----6--------6-----6--------|
D|---7--------------7------------|---7--------------7------------|
A|-------------------------------|-------------------------------|
E|-------------------------------|-------------------------------|
Suggest correction
comments
print report bad tab
guest
You may want to rate the tab now too:
select rating
Please do not post tabs as comments. Select "correction" instead!