Oops, an error
Loading. Please wait.

Call Out Laundry Tab

version 1
version 1

Whole song

3,791 views 9 this week
no commentswrite comment
1 2 3 4 5
accurate
x 3
add to favorites
launch autoscroll
font size
0
reset
how to read this tab
guitar tuner
Autoscroll
slow
fast
+/-
esc
set tempo
stop
Help us to improve Ultimate-Guitar.com Take our survey!
×
Author
--------------------------------------------------------------------------
                             CALL OUT (LAUNDRY) - Joyce Manor
--------------------------------------------------------------------------

Intro: x2
e|----------------------------------|
B|----------------------------------|
G|----------------------------------|
D|---------6------------------------|
A|---4-4---------------4------------|
E|-5-----5---5-4-4-2-2---2-1-1-1-2--|

e|-----------------------------------------------------------|
B|-----------------------------------------------------------|
G|-----------------------------------------------------------|
D|----------------------------------------------9-9-9-9-9-9--|
A|-2-2--2-4-4--4-5-5--5-4-4--4-2-2--2-4-4--4-7--7-7-7-7-7-7--|
E|-0-0--0-0-0--0-0-0--0-0-0--0-0-0--0-0-0--0-0--0-0-0-0-0-0--|


Verse: x2
e|------------------------|
B|------------------------|
G|-----------7----9-------|
D|-7---------7----9-------|
A|-7---------5----7-------|
E|-5--------------0-------|

  100x
e|------------|--------------------------------|
B|------------|--------------------------------|
G|------------|-7-7-7-7-7-7-7-7----------------|
D|-7-x7--7-7--|-7-7-7-7-7-7-7-7----------------|
A|-7-x7--7-7--|-5-5-5-5-5-5-5-5-2-2-2-2-3------|
E|-5-x5--5-5--|-----------------0-0-0-0-1------|
 |            |                                |
e|------------|--------------------------------|
B|------------|--------------------------------|
G|-6-x6--6-6--|-7-7-7-7-7-7-7-7-9999999910-----|
D|-x-xx--x-x--|-x-x-x-x-x-x-x-x-xxxxxxxxx------|
A|-4-x4--4-4--|-5-5-5-5-5-5-5-5-777777778------|
E|------------|--------------------------------|


Then, Intro and Verse again

Outro:
e|------------------------------------|
B|------------------------------------|
G|------------------------------------|
D|-7---------------7------------------|
A|-7---------------7------------------|
E|-5---------------5------------------|
 |                                    |
e|------------------------------------|
B|---------0---------------0----------|
G|-----6-----6---6-----6-----6---6----|
D|---7---7-----7-----7---7-----7------|
A|-0---------------0------------------|
E|------------------------------------|
Suggest correction
What's this?
You can suggest a correction to this tab. Community and Mods will review your correction and vote to approve or reject it.
comments
We did not receive enough feedback on this tab! Please rate:
print report bad tab
1 2 3 4 5
guest
You may want to rate the tab now too:
select rating
Please do not post tabs as comments. Select "correction" instead!