Oops, an error
Loading. Please wait.

Christmas Card Chords

version 1
version 1

Whole song

Interactive

17,129 views 60 this week
2 commentsread comments
1 2 3 4 5
x 22
add to favorites
launch autoscroll
font size
0
reset
transpose
0
reset
display chords
guitar tuner
Autoscroll
slow
fast
+/-
esc
set tempo
stop
Strumming
There is no strumming pattern for this song yet. and get +5 IQ
----------------------------------------------------------------------
                      CHRISTMAS CARD - Joyce Manor
----------------------------------------------------------------------

start with 4 strums of a G

C
Looking at your face in the dark
G
You don't even look that smart
F
Could never make it past that part
Am            G
              And now I guess we never will
C
Looking for the keys to the truck
G
Your body's saying isn't that enough?
F
Your brain is going I don't give a fuck
Am            G
              You treat it like a game of skill

F
But it's more like a work of art
G
Or money in a Christmas card
Am
You think about it way too hard
G             C
              I'm gonna stay with you until
F
You disappear into the crowd
G                              Am
I don't know what you tried to tell me
G             C
              You know I think about it still


Am    G    C  G  F       G      


C
Looking at your face in the dark
G
You don't even look that smart
F                              Am          G
I don't know what you tried to tell me
C
Disappear into the clouds
G                              F
I don't know what you tried to tell me
Am            G
              You know I think about it still 

F    G    



I think the lead over the verse is something like this:
e|---------------------------7---7---7----7---7---7--------------------------12---12--12--0----|
B|---5---5---5----5---5--5--0--0---0---0----0---0-----1---1---1----1---1-----------------------|
G|-5---5---5---5----5--5--------------------------------------------------0--------------------|
D|---------------------------------------------------------------------------------------------|
A|---------------------------------------------------------------------------------------------|
E|---------------------------------------------------------------------------------------------|

And the outro is something like this:
e|---------------------------------------------------------------------|
B|---------------------------------------------------------------------|
G|----2-----2--2-----2----2--2-/----4----4--4------4-----4--4----------|
D|-3------3-------3-----3------/-5-----5-------5-------5---------------|
A|------------------------------------------------------------3--------|
E|---------------------------------------------------------------------|
Suggest correction
comments
print report bad tab
2 comments total.
0 reply
bastianblaze 10 Jul 31, 2016 07:00 PM, edited at 11:01 pm

Everything seems right, but in the intro and outro, there's two different parts. The part with the chords you have and then this.e|---------------------------------------------------------------|B|-------------12---------------------17------15-----------------|G|--9----------x----------9-----------x-------x------------------|D|--10--x8-----x---x8-----10---x8-----x---x4--x---x4-------------|A|-------------10---------8-----------15------14-----------------|E|---------------------------------------------------------------|This is atleast what I make of it by ear. Open to suggestions. You start playing this at the "Looking at your face in the dark" part.

0 reply
bastianblaze 10 Jul 31, 2016 07:02 PM

Tab got messed up in my first comment.

e|---------------------------------------------------------------|
B|-------------12---------------------17------15-----------------|
G|--9----------x----------9-----------x-------x------------------|
D|--10--x8-----x---x8-----10---x8-----x---x4--x---x4-------------|
A|-------------10---------8-----------15------14-----------------|
E|---------------------------------------------------------------|

guest
You may want to rate the tab now too:
select rating
Wanna post a correction for this tab? Suggest correction