Oops, an error
Loading. Please wait.

Constant Headache Tab

version 1
version 1

Whole song

Interactive

48,438 views 171 this week
7 commentsread comments
1 2 3 4 5
excellent!
x 11
add to favorites
launch autoscroll
font size
0
reset
how to read this tab
guitar tuner
Autoscroll
slow
fast
+/-
esc
set tempo
stop
Help us to improve Ultimate-Guitar.com Take our survey!
×
Author
[Intro]

e|-------------------------------------------------------------------------|
B|--------------------------------------7-7-5-4----------------------------|
G|----1-1----8-6---1-1---2-4-2-1--4-4-1----------6-6-8-9-8-6-8-------------|
D|--2------2-----1-----1---------------------------------------------------|
A|-------------------------------------------------------------------------|
E|-------------------------------------------------------------------------|

*2nd guitar
e|-------------------------------------------------------------------------|
B|---4-------this play htrough the whole beginning part--------------------|
G|---4----------i'm probably wrong and the solo is a little-off------------|
D|---2---------------------------------------------------------------------|
A|---2---------------------------------------------------------------------|
E|-------------------------------------------------------------------------|


[Verse]

   I could hear you coming so I hid by the couch.
   You were talking so loudly,  I don't know what about.
   You were drunker than high school, self-conscious and sweet.
   I never ever felt so cool   disguised in your sheets.
e|-------------------------------------------------------------------------|
B|-------------------------------------------------------------------------|
G|---------------------------4--4--4--4--4--4--4--4------------------------|
D|--2--2--2--2--2--2--2--2---4--4--4--4--4--4--4--4------------------------|
A|--2--2--2--2--2--2--2--2---2--2--2--2--2--2--2--2------------------------|
E|--0--0--0--0--0--0--0--0-------------------------------------------------|


[Chorus]

But I'm a constant headache, a tooth out of line.
They try to make you regret it, you tell them, no not this time.
e|-------------------------------------------------------------------------|
B|-------------------------------------------------------------------------|
G|----------------------------4--4--4--4--4--4--4--4-----------------------|
D|--2--2--2--2--2--2--2--2----4--4--4--4--4--4--4--4-----------------------|
A|--2--2--2--2--2--2--2--2----2--2--2--2--2--2--2--2-----------------------|
E|--0--0--0--0--0--0--0--0-------------------------------------------------|

It's just a constant headache, a dead pet device.
e|-------------------------------------------------------------------------|
B|-------------------------------------------------------------------------|
G|--------------------------------4--4--4--4--4--4--4--4-------------------|
D|--6--6--6--6--6--6--6--6--------4--4--4--4--4--4--4--4-------------------|
A|--6--6--6--6--6--6--6--6--------2--2--2--2--2--2--2--2-------------------|
E|--4--4--4--4--4--4--4--4-------------------------------------------------|


You hang me up, unfinished with  the better part of me no longer mine.
e|-------------------------------------------------------------------------|
B|-------------------------------------------------------------------------|
G|-------------------------------------------------------------------------|
D|--6--6--6--6--6--6--6--6--------4--4--4--4--4--4--4--4-------------------|
A|--6--6--6--6--6--6--6--6--------4--4--4--4--4--4--4--4-------------------|
E|--4--4--4--4--4--4--4--4--------2--2--2--2--2--2--2--2-------------------|


e|-------------------------------------------------------------------------|
B|--------------------------------------7-7-5-4----------------------------|
G|----1-1----8-6---1-1---2-4-2-1--4-4-1----------6-6-8-9-8-6-8-------------|
D|--2------2-----1-----1---------------------------------------------------|
A|-------------------------------------------------------------------------|
E|-------------------------------------------------------------------------|

*2nd guitar pal muted

e|-------------------------------------------------------------------------|
B|-------------------------------------------------------------------------|
G|----------------------------4--4--4--4--4--4--4--4-----------------------|
D|--2--2--2--2--2--2--2--2----4--4--4--4--4--4--4--4-----------------------|
A|--2--2--2--2--2--2--2--2----2--2--2--2--2--2--2--2-----------------------|
E|--0--0--0--0--0--0--0--0-------------------------------------------------|

e|-------------------------------------------------------------------------|
B|-------------------------------------------------------------------------|
G|-------------------------------------------------------------------------|
D|--6--6--6--6--6--6--6--6--------4--4--4--4--4--4--4--4-------------------|
A|--6--6--6--6--6--6--6--6--------4--4--4--4--4--4--4--4-------------------|
E|--4--4--4--4--4--4--4--4--------2--2--2--2--2--2--2--2-------------------|


[Verse]

And then you finally found me, pretending to sleep.
You said such nice things about me, I felt guilty and cheap.
You took two steps to the kitchen, and just stared at the sink.
I couldn't hold back a smile, I still wish I could have seen you 
Having sex in the morning, your love was foreign to me.
It made me think maybe human is not such a bad thing to be.
But I just laid there in protest, entirely fucked.
It's such a stubborn reminder one perfect night's not enough. 
e|-------------------------------------------------------------------------|
B|-------------------------------------------------------------------------|
G|----------------------------4--4--4--4--4--4--4--4-----------------------|
D|--2--2--2--2--2--2--2--2----4--4--4--4--4--4--4--4-----------------------|
A|--2--2--2--2--2--2--2--2----2--2--2--2--2--2--2--2-----------------------|
E|--0--0--0--0--0--0--0--0-------------------------------------------------|


[Chorus]

But I'm a constant headache, a tooth out of line.
They try to make you regret it, you tell them, no not this time.
e|-------------------------------------------------------------------------|
B|-------------------------------------------------------------------------|
G|----------------------------4--4--4--4--4--4--4--4-----------------------|
D|--2--2--2--2--2--2--2--2----4--4--4--4--4--4--4--4-----------------------|
A|--2--2--2--2--2--2--2--2----2--2--2--2--2--2--2--2-----------------------|
E|--0--0--0--0--0--0--0--0-------------------------------------------------|

It's just a constant headache, a dead pet device.
e|-------------------------------------------------------------------------|
B|-------------------------------------------------------------------------|
G|--------------------------------4--4--4--4--4--4--4--4-------------------|
D|--6--6--6--6--6--6--6--6--------4--4--4--4--4--4--4--4-------------------|
A|--6--6--6--6--6--6--6--6--------2--2--2--2--2--2--2--2-------------------|
E|--4--4--4--4--4--4--4--4-------------------------------------------------|


You hang me up, unfinished with  the better part of me no longer mine.
e|-------------------------------------------------------------------------|
B|-------------------------------------------------------------------------|
G|-------------------------------------------------------------------------|
D|--6--6--6--6--6--6--6--6--------4--4--4--4--4--4--4--4-------------------|
A|--6--6--6--6--6--6--6--6--------4--4--4--4--4--4--4--4-------------------|
E|--4--4--4--4--4--4--4--4--------2--2--2--2--2--2--2--2-------------------|


[Outro]

e|-------------------------------------------------------------------------|
B|-------------------------------------------------------------------------|
G|-9-8-9-8-9-8-9-8-9-9-8--------------------8-8-9-8-6-4--------------------|
D|----------------------------6-4-6-4-6-4-6--------------------------------|
A|-------------------------------------------------------------------------|
E|-------------------------------------------------------------------------|

e|---------------------------------------------------------------------------------------|
B|---------------------------------------------------------------------------------------|
G|-----------------6-6-----4---4---4---4-------------------------8-8-----9---9---9---9---|
D|-2-2-2-2-2-2-2---6-6-----4---4---4---4-------6-6-6-6-6-6-6-6---8-8-----9---9---9---9---|
A|-2-2-2-2-2-2-2---4-4-----2---2---2---2-------6-6-6-6-6-6-6-6---6-6-----7---7---7---7---|
E|-0-0-0-0-0-0-0-------------------------------4-4-4-4-4-4-4-4---------------------------|
Suggest correction
What's this?
You can suggest a correction to this tab. Community and Mods will review your correction and vote to approve or reject it.
comments
print report bad tab
7 comments total. Showing first comments.
+5 reply
jorder247 50 wrote on September 15 2012, 05:51 pm

 e|-------------------------------------------------------------------------|
B|-----------4-2------------------------7-7-5-4----------5-4-2-4-----------|
G|----1-1----------------3--6-4---4-4--------------3-3---------------------|
D|--2------2-------1-1----------6-----6----------4-----4-------------------|
A|---------------2-----2---------------------------------------------------|
E|-------------------------------------------------------------------------|


corrected intro tab

+1 reply
midfielder7 66 wrote on April 6 2013, 12:44 pm

e|---
B|-7-
G|-8-
D|-9-
A|---
E|-7-

I think this is the chord they use at the start of the song

0 reply
CCrev 217 wrote on June 28 2014, 03:02 pm

How to play the ending on 1 guitar:

e|-------------------------------------------------------------------------
B|-----------------------------------5-5--4-----------4-4--5---------------
G|--9-8-9-8-9-8-9-8-9-8-9-8-9-8-9-8--6-6--4-----------4-4--6---------------
D|-------------------------------------------6-4-6-4-----------------------
A|--7-7-7-7-7-7-7-7-7-7-7-7-7-7-7-7--4-4--2-----------2-2--4---------------
E|-------------------------------------------4-4-4-4-----------------------

Got lazy on the G# part but you get the idea.

Also I think the 2nd guitar in the intro isn't just B but E-B-G#-F#

The verse is E-B-E-B-G#-B-G#-B

guest
You may want to rate the tab now too:
select rating
Please do not post tabs as comments. Select "correction" instead!