Oops, an error
Loading. Please wait.

Fake Id Chords

2,410 views 147 this week
1 commentread comment
1 2 3 4 5
x 11
add to favorites
launch autoscroll
font size
0
reset
transpose
0
reset
simplify chords
display chords
guitar tuner
Autoscroll
slow
fast
+/-
esc
set tempo
stop
Help us to improve Ultimate-Guitar.com Take our survey!
×
Author
Difficulty
Here's "Fake ID2 by Joyce Manor to the best of my ability, simplified for one guitar but mostly the second
guitar plays chords over a melody line or vice versa. Let me know if anything's funky and i'll get on it.



RIFF 1
_____________________


E|------------------------------------------------------------------------------------------
B|-------------------------------------8--6--5-----5----5--6--5---3-------------------------
G|---------5----5--7--5--4--7----------------------------------------5--4--5--2-------------
D|----7-------------------------------------------------------------------------------------
A|------------------------------------------------------------------------------------------
E|------------------------------------------------------------------------------------------

E|--------------------------------------0--0--0----    
B|--------------------------------------1--1--1----      
G|---5----5--7--5--4---------------    -0--0--0----   
D|----------------------5---3--5--------2--2--2----    
A|--------------------------------------3--3--3----     
E|--------------------------------------0--0--0----


RIFF 2
____________

E|----------------------------0-----------------------------------------0---------------
B|-------------------------------1-----------------------------------------3------------
G|------------------0-----------------------------------------0-------------------------
D|----0---2p0-0-0------0------------------------0---2p0-0-0------0----------------------
A|--------------------------------------------------------------------------------------
E|--------------------------------------------------------------------------------------

E|----------------------------0-------
B|-------------------------------1----
G|------------------0-----------------
D|----0---2p0-0-0------0--------------
A|------------------------------------
E|------------------------------------

PRE-VERSE
___________


Riff 2 with second guitar playing

C, G, F ,G



VERSE
____________________


C            G          F           G
Tell me what more could she want to be

   C         G            F     G
A super hot friend with a fake I.D

    C             G           F             G
She takes off her clothes and hands them to me

   C             G      F         G
And what she did next I could not believe





PRE-CHORUS
__________________


F        G
Don't be fooled

    C               F
The first two hours ruled

    F        G
But then she seduced

   C               G    
Herself out of her room





CHORUS
_________________

          Am                      G
Singing, "What do you think about Kanye West?"

   C                        F
"I think that he's great, I think he's the best"

       Am                       G
"Yeah, I think he's better than John Steinbeck

  C                      Am
I think he's better than Phil Hartman"




VERSE 2
_______________


 F          G
"Don't you agree?"

 C                         F
"Can't you see you're just like me

F              G
The man can do things

F                  G          G#
The rest of us can only dream of, baby"





BRIDGE
_____________________


C (ring out)

Tell me what more could you want to see

C5          G5      F5          G5
Try to calm down or leave it to me

C5         G5               F5        G5
Freight elevator, now we're really rocking

C           G           F      G
Breaking my heart going window shopping




VERSE 3
____________



F         G
Don't be shy

C               F
Cause my friend Brandon died

F          G
And I feel sad

F                  G           
I miss him, he was rad








ORDER
________________

RIFF 1
PRE-VERSE
VERSE
PRE-CHORUS
CHORUS
VERSE 2
RIFF 1
BRIDGE (Palm mute power chords)
VERSE 3
PRE-VERSE
Suggest correction
comments
print report bad tab
1 comment total.
0 reply
jack_rossi1 47 Sep 23, 2016 11:10 PM

I added one correction to the second riff. Great tab!

guest
You may want to rate the tab now too:
select rating
Wanna post a correction for this tab? Suggest correction