Oops, an error
Loading. Please wait.

Leather Jacket Chords

version 1
version 1

Whole song

Interactive

127 views 27 this week
no commentswrite comment
1 2 3 4 5
3 more votes to show rating
add to favorites
launch autoscroll
font size
0
reset
transpose
0
reset
display chords
guitar tuner
Autoscroll
slow
fast
+/-
esc
set tempo
stop
Help us to improve Ultimate-Guitar.com Take our survey!
×
Difficulty
novice
[intro]
D Db   Db B   Db B   B A 
D Db   Db B   Db B A G F#
D Db   Db B   Db B   B A
F#/slide/Db D

[Chorus]

D (palm muted)              A
In your new leather jacket, you're somebody else
D                                  A
And it's not nice to meet you in a fortress of self.
G                                        Gb
Thanks to your new leather jacket, we're nobodies now.
        E                   D
Pack of cigarettes, I empty out.

[Verse]
D                                   A
I miss the way we talked before you went away to school.
D                                 A
Now all you seem to say is "Baby, how could it be you?"
G                                        Gb
I hate the way you're leaning and you're looking at your phone.
E                                E
I hate the way I feel like dying when I'm all alone.

[Chorus]
D (palm muted)                     A
In your new leather jacket, you're somebody else
D                                  A
And it's not nice to meet you in a fortress of self.
               G                         Gb
Thanks to your new leather jacket, we're nobodies now.
        E                   D
Pack of cigarettes, I empty out.

[Instumental]
D Db E Db E A E A G F# 
D Db E Db E A E A D Db
D Db E Db E A E A G F# 
E Ab D

[Solo]
e|--------7----------------------------7----------------------|
B|-----10---10--7--10--7-----7------10---10--7--10--7-----7---|
G|---7------------------6--9------7------------------6--9-----|
D|------------------------------------------------------------|
A|------------------------------------------------------------|
E|------------------------------------------------------------|

e|----------------------------------------------7---------------9--7----------|
B|-----10--7---7--------10--7---7-----7--10--7-----10--7-----10------10--7----|
G|--7--------9---9---7--------9---9------------------------9------------------|
D|----------------------------------------------------------------------------|
A|----------------------------------------------------------------------------|
E|----------------------------------------------------------------------------|

e|----------------------------------------9~-9/10~----------------------------|
B|-----10--7---7--------10--7---7-----7~-----------10\\-----------------------|
G|--7--------9---9---7--------9---9-------------------------------------------|
D|----------------------------------------------------------------------------|
A|----------------------------------------------------------------------------|
E|----------------------------------------------------------------------------|

[Outro]
D


************************************

| /  Slide up
| ~  Vibrato
| \  Slide down

************************************
Suggest correction
Give kudos to tab author, rate the tab!
1 2 3 4 5
comments
print report bad tab
guest
You may want to rate the tab now too:
select rating
Wanna post a correction for this tab? Suggest correction