Oops, an error
Loading. Please wait.

Leather Jacket bass

version 2
version 2

Whole song

Interactive

118 views 1 this week
no commentswrite comment
1 2 3 4 5
1 last vote to show rating
add to favorites
×
Save as Personal and add changes to this tab that will be seen only by you. Learn more ›
×
You can save this tab as Personal to edit and correct it or add notes. All changes will be seen only by you. Learn more »
launch autoscroll
font size
0
reset
guitar tuner
edit
Autoscroll
slow
fast
+/-
esc
set tempo
stop
Author
Difficulty
[Intro]

G|---------------------------------------------------------------------------|
D|---------------------------------------------------------------------------|
A|---------------------------------------------------------------------------|
E|-10-9-9-7-9-7-7-5-10-9-9-7-9-7-5-3-2--10-9-9-7-9-7-7-5---------------------|

G|---------------------------------------------------------------------------|
D|---------------------------------------------------------------------------|
A|-///9-4-5------------------------------------------------------------------|
E|---------------------------------------------------------------------------|


[Verse] 
Not 100% on this part. Sounds pretty much right to me, sounds good when you play along to the song.
G|----6----7----6----7----6----7----6----7-----------------------------------|
D|-5-4-5-4--5-7--5-4--5-7--5-4--5-7--5-4--5-7--------------------------------|
A|---------------------------------------------------------------------------|
E|---------------------------------------------------------------------------|

Palm Mute These Notes X2, This part plays twice in the song
G|---------------------------------------------------------------------------|
D|---------------------------------------------------------------------------|
A|--555555555555-------------------------------------------------------------|
E|--------------555555555555-------------------------------------------------|

And then.. (10, not 1 and 0)
G|---------------------------------------------------------------------------|
D|---------------------------------------------------------------------------|
A|-101010101010101010101010-999999999999-7777777--10-9-7-5-555555555555------|
E|---------------------------------------------------------------------------|


[Chorus] X2
X2
G|---------------------------------------------------------------------------|
D|---------------------------------------------------------------------------|
A|-5-5555--------------------------------------------------------------------|
E|-------5-5555/7-7777-5-5555------------------------------------------------|

X1
G|---------------------------------------------------------------------------|
D|---------------------------------------------------------------------------|
A|-10-1010101010101010101010-9-9999999999-7-7777777777-10-9-7-5--------------|
E|---------------------------------------------------------------------------|

[Breakdown]

G|---------------------------------------------------------------------------|
D|---------------------------------------------------------------------------|
A|---------------------------------------------------------------------------|
E|-10-9-7-9-7-5-7-5-3-2-2-2--10-9-7-9-7-5-7-5-10-9-9-9-----------------------|

G|---------------------------------------------------------------------------|
D|---------------------------------------------------------------------------|
A|-------------------------------5555555555555555555-------------------------|
E|-10-9-7-9-7-5-7-5-3-2-2-2--0--4--------------------------------------------|

[Outro]
X2
G|-7----6----7----6----7----6----7----6--------------------------------------|
D|--5-7--5-4--5-7--5-4--5-7--5-4--5-7--5-4-----------------------------------|
A|---------------------------------------------------------------------------|
E|---------------------------------------------------------------------------|

Not exactly sure how many times you hit the D note at the end but just hit that hard until the end. 
G|---------------------------------------------------------------------------|
D|---------------------------------------------------------------------------|
A|-555555555555-444444444444-222222222222----4-5-0--55555555555555555--------|
E|-----------------------------------------2---------------------------------|



************************************

| /  Slide up

************************************
Suggest correction
Creating personal tab
Creating personal tab
You can edit any tab online and save it as your Personal.

You can edit, replace or remove any tab part or add personal notes – all changes will be seen only by you.

Personal tabs can be accessed anytime from any device, even offline.
Learn more »
Give kudos to tab author, rate the tab!
1 2 3 4 5
comments
print report bad tab
guest
You may want to rate the tab now too:
select rating
Wanna post a correction for this tab? Suggest correction