Oops, an error
Loading. Please wait.

See How Tame I Can Be intro bass

2,309 views 1 this week
2 commentsread comments
1 2 3 4 5
x 5
add to favorites
×
Save as Personal and add changes to this tab that will be seen only by you. Learn more ›
×
You can save this tab as Personal to edit and correct it or add notes. All changes will be seen only by you. Learn more »
launch autoscroll
font size
0
reset
guitar tuner
edit
Autoscroll
slow
fast
+/-
esc
set tempo
stop
Author
Standard tuning

|-----7-9----------7-9----7-9----------7-9-7---7-9-------7-9---7-9-------7-9-7--|
|--10-----10-10-10-----10-----10-10-10-------7-----7-7-7-----7-----7-7-7--------|
|-------------------------------------------------------------------------------|
|-------------------------------------------------------------------------------|
|
|--------9-7---------9-7-------9-7---------9-7-2---5-7-------5-7---7-9---7-9-5-7-|
|--5/7h9-----5-5/7h9-----5/7h9-----5-5/7h9-------3-----3-3-3-----5-----5---------|
|--------------------------------------------------------------------------------|
|--------------------------------------------------------------------------------|

            
            
Suggest correction
Creating personal tab
Creating personal tab
You can edit any tab online and save it as your Personal.

You can edit, replace or remove any tab part or add personal notes – all changes will be seen only by you.

Personal tabs can be accessed anytime from any device, even offline.
Learn more »
comments
print report bad tab
2 comments total.
+1 reply
beastlycoconut 10 Nov 18, 2013 03:15 PM

instead of 3 on D string why not 8 on A string?

0 reply
bitchmuckley 303 Mar 26, 2015 02:50 PM

thats how I play it but it doesnt really matter

guest
You may want to rate the tab now too:
select rating
Wanna post a correction for this tab? Suggest correction