Oops, an error
Loading. Please wait.

These Kind Of Ice Skates Tab

2,315 views 12 this week
no commentswrite comment
1 2 3 4 5
accurate
x 3
add to favorites
launch autoscroll
font size
0
reset
how to read this tab
guitar tuner
Autoscroll
slow
fast
+/-
esc
set tempo
stop
Help us to improve Ultimate-Guitar.com Take our survey!
×
-----------------------------------------------------------------------------
                  THESE KIND OF ICE SKATES - Joyce Manor
-----------------------------------------------------------------------------

Intro:
e|-----------|
B|-----------|
G|-----------|
D|-7----2----|
A|-7----2----|
E|-5----0----|

Verse: (all palm muted)
e|------------------------------------------------------------------|
B|------------------------------------------------------------------|
G|------------------------------------------------------------------|
D|-------------------------------------------------7777777777777777-|
A|-7777777777777777777777777777777744444444444444445555555555555555-|
E|-555555555555555544444444444444442222222222222222-----------------|

e|---------------------------------------------------|
B|---------------------------------------------------|
G|---------------------------------------------------|
D|-----------------77777777777777777-----------------|
A|-9999999999999999555555555555555557777777777777777-|
E|-7777777777777777-----------------5555555555555555-|
 |
e|----------------------------------5---------------|
B|-----10---------------------------x---------------|
G|-7/9-----9-------6/7-7/9-9/7-7646-6---------------|
D|---------------------------------------------------|
A|---------------------------------------------------|
E|---------------------------------------------------|

Other verse part:
e|-----------------------------------------------|
B|-----------------------------------------------|
G|------------------------7-7--7----7-7--7-------|
D|-9-9--9----9-9----------7-7--7----7-7--7-7*----|
A|-9-9--9----9-9--9-7-7-7-5-5--5----5-5--5-0-----|
E|-7-7--7----7-7--7-5-4-0------------------------|

e|---------------------------------------------|
B|------------------7-7-7----------------------|
G|------------------7-7-7-7-7--7---------7-----|
D|-9-9--9----9-9--9-7-7-7-7-7--7----2----7-----|
A|-9-9--9----9-9--9-5-5-5-5-5--5----2----5-----|
E|-7-7--7----7-7--7-----------------0----------|


Outro:
e|---------------------------------------------------------|
B|---------------------------------------------------------|
G|---------------------------------------------------------|
D|-7-7--7-6-6--6-9-9--9-9-9--9-7-7--7-7-7--7-6-6--6-6-6--6-|
A|-7-7--7-7-7--7-9-9--9-9-9--9-7-7--7-7-7--7-7-7--7-7-7--7-|
E|-5-5--5-4-4--4-7-7--7-7-7--7-5-5--5-5-5--5-4-4--4-4-4--4-|
 |
e|-0-0--0-0-0--0-0-0--0-0-0--0-0-0--0-0-0--0-0-0--0-0-0--0-|
B|---------------7-7--7-7-7--7-1212-121212-12--------------|
G|-9-9--9-8-8--8-----------------------------8-8--8-8-8--8-|
D|---------------------------------------------------------|
A|---------------------------------------------------------|
E|---------------------------------------------------------|
Suggest correction
Give kudos to tab author, rate the tab!
1 2 3 4 5
comments
print report bad tab
guest
You may want to rate the tab now too:
select rating
Wanna post a correction for this tab? Suggest correction