Oops, an error
Loading. Please wait.

Violent Inside Tab

2,676 views 12 this week
no commentswrite comment
1 2 3 4 5
accurate
x 1
add to favorites
launch autoscroll
font size
0
reset
how to read this tab
guitar tuner
Tab Pro tools
  • play this tab
  • loop segment
  • change instrument
  • show fretboard
  • metronome
Autoscroll
slow
fast
+/-
esc
set tempo
stop
Contributor
--------------------------------------------------------------------
                             VIOLENT INSIDE - Joyce Manor
--------------------------------------------------------------------

Intro: x2
e|--------------------------------------|------------------------------|
B|--------------------------------------|-7--7-4-4---7--7-4--4---------|
G|-4-6-8---8-6-6---6-8-4----4h6-8-6-4-6-|----------4-----------4h6h4---|
D|--------------------------------------|------------------------------|
A|--------------------------------------|------------------------------|
E|--------------------------------------|------------------------------|
 |
e|--------------------------------------|------------------------------|
B|--------------------------------------|------------------------------|
G|-----4---4---4--4---------------------|------------------------------|
D|-----4---4---4--4---2-----2----2-2-2--|-6---6---6--6-4----4--4--4----|
A|-----2---2---2--2---2-----2----2-2-2--|-6---6---6--6-4----4--4--4----|
E|--------------------0-----0----0-0-0--|-4---4---4--4-2----2--2--2----|


Verse: x2
e|---------------------------------|
B|---------------------------------|
G|-4-------------------8------6----|
D|-4-----------------6-------------|
A|-2---------------7--------4------|
E|---------------------------------|
 |
e|---------------------------------|
B|---------------------------------|
G|-4-4-4-4-4-4-4-4-----------------|
D|-4-4-4-4-4-4-4-4-6-6-6-6-4-4-4-4-|
A|-2-2-2-2-2-2-2-2-6-6-6-6-4-4-4-4-|
E|-----------------4-4-4-4-2-2-2-2-|


Pre-Chorus:
e|--------------------------|---------------------------------------|
B|--------------------------|---------------------------------------|
G|-9------6------4----------|---------------------------------------|
D|-9------6------4-----6----|-4-4--4-4-4--4-4-4----2-------4--------|
A|-7------4------2-----6----|-4-4--4-4-4--4-4-4----2-------4--------|
E|-0-------------------4----|-2-2--2-2-2--2-2-2----0-------2--------|


Chorus: x3
e|-----------------------------------------------------------|
B|-----------------------------------------------------------|
G|-4---4---4-4-----------------------------------------------|
D|-4---4---4-4--2---2---2-2-2---6---6---6-6--4---4---4-4-4---|
A|-2---2---2-2--2---2---2-2-2---6---6---6-6--4---4---4-4-4---|
E|--------------0---0---0-0-0---4---4---4-4--2---2---2-2-2---|

e|---------------------------------------------------------------|
B|---------------------------------------------------------------|
G|---------------------------------------------------------------|
D|---------------------------------------------------------------|
A|-6-6-6-6-6-6-6-6-6-6-6-6-6-6-6-4-4-4-4-4-4-4-4-2-2-2-2-2-2-2-2-|
E|-4-4-4-4-4-4-4-4-4-4-4-4-4-4-4-2-2-2-2-2-2-2-2-0-0-0-0-0-0-0-0-|
   pm. . . . . . . . . . . . . . . . . . . . . . . . . . . 



Outro:
e|--------------------------------------|------------------------------|
B|--------------------------------------|------------------------------|
G|-4-6-8---8-6-6---6-8-4----4h6-8-6-4-6-|-8---8-6-6--8-4---4h6-8-6-4-6-|
D|--------------------------------------|------------------------------|
A|--------------------------------------|------------------------------|
E|--------------------------------------|------------------------------|
 |
e|--------------------------------------|------------------------------|
B|--------------------------------------|------------------------------|
G|-----4---4---4--4---------------------|-4---4---4--4-----------------|
D|-----4---4---4--4---2-----2----2-2-2--|-4---4---4--4-2----2--2--2----|
A|-----2---2---2--2---2-----2----2-2-2--|-2---2---2--2-2----2--2--2----|
E|--------------------0-----0----0-0-0--|--------------0----0--0--0----|


e|-------------------------------|-------------------------------------|
B|-7---7-4-4-----7-7---7-4-4-----|-7-4---7-4---7-4---7-4---------------|
G|-------------4-------------4-4-|-----4-----4-----4-----4-6-6-4-6-4---|
D|-------------------------------|-------------------------------------|
A|-------------------------------|-------------------------------------|
E|-------------------------------|-------------------------------------|
 |
e|-------------------------------|--------------------------------------|
B|-------------------------------|--------------------------------------|
G|-------------------------------|---------------------------------4----|
D|-6---6---6--6-4----4--4--4-----|-2---2---2-2-2---4---4---4-4-4-4-4----|
A|-6---6---6--6-4----4--4--4-----|-2---2---2-2-2---4---4---4-4-4-4-2----|
E|-4---4---4--4-2----2--2--2-----|-0---0---0-0-0---2---2---2-2-2-2------|
comments
We did not receive enough feedback on this tab! Please rate:
print report bad tab
1 2 3 4 5
I want to post or [tab]
guest
You may want to rate the tab now too:
select rating
Please do not post tabs as comments. Select "correction" instead!