Oops, an error
Loading. Please wait.

Smalls tab

version 1
version 1

Whole song

  • This version of the song is pulled from a tutorial... Show more
112 views 1 this week
no commentswrite comment
1 2 3 4 5
3 more votes to show rating
add to favorites
×
Save as Personal and add changes to this tab that will be seen only by you. Learn more ›
×
You can save this tab as Personal to edit and correct it or add notes. All changes will be seen only by you. Learn more »
launch autoscroll
font size
0
reset
how to read this tab
guitar tuner
edit
Autoscroll
slow
fast
+/-
esc
set tempo
stop
Author
Difficulty
Artist: JPNSGRLS (pronounced "Japanese Girls")
Song: Smalls
Album: Circulation
Year: 2014
Tabbed by: tg4414
[Intro]Guitar feedback

[Riff 1]
e|-------------------------------------|
B|-------------------------------------|
G|7-7-7-7--------------------9-9-9-9---|
D|7-7-7-7--6-6-6-6--5-5-5-5--9-9-9-9---| X4
A|5-5-5-5--6-6-6-6--5-5-5-5--7-7-7-7---|
E|---------4-4-4-4--3-3-3-3------------|

[Riff 2]
e|7-7----7-7----3-3--------7-7----7-7----3---|
B|7-7----7-7----3-3--------7-7----7-7----3---|
G|8-8----8-8----4-4--------8-8----8-8----4---|
D|9-9----9-9----5-5--------9-9----9-9----5---|
A|9-9----9-9----5-5--------9-9----9-9----5---|
E|7-7----7-7----3-3--------7-7----7-7----3---|

[Riff 3](all upstrokes)
e|7-7-7-7-7-7-7-7--3-3-3-3-3-3-3-3----|
B|7-7-7-7-7-7-7-7--3-3-3-3-3-3-3-3----|
G|------------------------------------|(X3)
D|------------------------------------|
A|------------------------------------|
E|------------------------------------|

[Riff 4](1st time) (use a boost pedal and a reverb to get a similar lead tone):
e|-----------------------------|
B|-----------------------------|
G|-7N----9N----10N-------------|
D|-----------------------------|
A|-----------------------------|
E|-----------------------------|

(During the tremolo picking, a 2nd guitar plays this)
e|----------------------------------|
B|----------------------------------|
G|----------------------------------|
D|-9-9-9-9-9-9-9--5-5-5-5-5-5-5-5---|
A|-9-9-9-9-9-9-9--5-5-5-5-5-5-5-5---|
E|-7-7-7-7-7-7-7--3-3-3-3-3-3-3-3---|

[Riff 2]
[Riff 3]

[Riff 4](2nd time)(tremolo pick)
e|-----------------------------------------|
B|-----------------------------------------|
G|-7N----9N----10--------7N----9N----16N---|
D|-----------------------------------------|
A|-----------------------------------------|
E|-----------------------------------------|

[Riff 5]
e|---------------------------------|------------------------------------|
B|---------------------------------|-----------5--5--------------5--5---|
G|-7-7-7-7--9--9----7-7-7-7--9--9--|--4-4-4-4--4--4-----4-4-4-4--4--4---|
D|-7-7-7-7--9--9----7-7-7-7--9--9--|--5-5-5-5--5--5-----5-5-5-5--5--5---|
A|-5-5-5-5--5--5----5-5-5-5--5--5--|--5-5-5-5--5--5-----5-5-5-5--5--5---|
E|---------------------------------|--3-3-3-3--3--3---- 3-3-3-3--3--3---|

[Riff 1]
[Riff 5]
[Riff 1]
[Riff 5]
[Riff 1]
[Riff 5]
[Riff 1 X4]
[Riff 4]
[Outro](Riff 2)

(Throughout the song, there are lots of background note bends and jangly leads)
e|--9b--|----------13-12-10-12-10b~--|----------------------10h12p10h12p10h12p10~-|
B|------|----------------------------|--------------------------------------------|
G|------|-7-7-7-7--------------------|-7h9p7h9p7h9p7~-----------------------------|
D|------|----------------------------|--------------------------------------------|
A|------|----------------------------|--------------------------------------------|
E|------|----------------------------|--------------------------------------------|

e|-------------|----------------------|---------------9b--------------------------|
B|--------9b---|--9bN-10bN-11bN-12bN--|-------------------------------------------|
G|--7b---------|----------------------|-9br----7br--------------9br----7~---------|
D|-------------|----------------------|-------------------------------------------|
A|-------------|----------------------|-------------------------------------------|
E|-------------|----------------------|-------------------------------------------|

************************************

| h   Hammer-on
| p   Pull-off
| b   Bend
| ~   Vibrato
| br  Bend release

************************************

            
            
Suggest correction
Creating personal tab
Creating personal tab
You can edit any tab online and save it as your Personal.

You can edit, replace or remove any tab part or add personal notes – all changes will be seen only by you.

Personal tabs can be accessed anytime from any device, even offline.
Learn more »
Give kudos to tab author, rate the tab!
1 2 3 4 5
comments
print report bad tab
guest
You may want to rate the tab now too:
select rating
Wanna post a correction for this tab? Suggest correction