Oops, an error
Loading. Please wait.

Color Me Blue chords

4 views 1 this week
no commentswrite comment
1 2 3 4 5
3 more votes to show rating
add to favorites
×
Save as Personal and add changes to this tab that will be seen only by you. Learn more ›
×
You can save this tab as Personal to edit and correct it or add notes. All changes will be seen only by you. Learn more »
launch autoscroll
font size
0
reset
transpose
0
reset
display chords
guitar tuner
edit
Autoscroll
slow
fast
+/-
esc
set tempo
stop
Strumming
There is no strumming pattern for this song yet. and get +5 IQ
Color Me Blue
From the album Beware

[INTRO]

D F#m G A x2

A A A

N.C.

[VERSE 1]

D           F#m
Oh, heaven knows
G             A
I must stay away from you
D        F#m
But if I don't
G                A
Well, I'm gonna lose
D      F#m
And I know
G                  A
That you're gonna have to go
D         F#m
When I'm alone 
G                A
With a lovesick flu

[CHORUS]

           D  F#m
Color me blue
     G             A
But you'll never know
           D  F#m
Color me blue
    G             A
Or you'll never know

[BRIDGE]

Bm 
Lost in a moment
A
Lost in a last goodbye
Bm                   A
Lost in a time with you
Bm
Left and a-lonely
A
Left in a time before
 G                      A
When I had a life with you

[VERSE 2]

D       F#m
Heaven knows
G               A
You must stay away from me
D          F#m
So tell me no
G               A
That it ain't true
D       F#m
Girl I know
G             A
Just who you go to see
D         F#m
When I'm alone 
G                A
With a lovesick flu

[CHORUS]

           D  F#m
Color me blue
     G             A
But you'll never know
           D  F#m
Color me blue
    G             A
Or you'll never know

[BRIDGE]

Bm 
Lost in a moment
A
Lost in a last goodbye
Bm                   A
Lost in a time with you
Bm
Left and a-lonely
A
Left in a time before
  G                     A
When I had a life with you

[SOLO]

           D       F#m         G       A 
e|----------------------------------------|
B|----------------------------------------|
G|----9h10h11-9----11-----9h10h11-9-------|
D|-12-----------12-----12-----------12----|
A|-------------------------------------12-|
E|----------------------------------------|

            D      F#m         G       A 
e|----------------------------------------------|
B|----------------------------------------------|
G|----9h10h11-9----11-----9h10h11-9-------------|
D|-12-----------12-----12-----------12----------|
A|-------------------------------------12-12-12-|
E|----------------------------------------------|

A A A A

[VERSE 3]

D              F#m
Don't let 'em know
G             A
I must stay away from you
D        F#m
But if I don't
G                A
Well, I'm gonna lose
D      F#m
And I know
G                  A
That you're gonna have to go
D         F#m
When I'm alone 
G                A
With a lovesick flu

[CHORUS]

           D  F#m
Color me blue
     G             A
But you'll never know
           D  F#m
Color me blue
    G             A
No you'll never know
           D  F#m
Color me blue
     G             A
But you'll never know
           D  F#m
Color me blue
    G             A
No you'll never know

[OUTRO]

           D       F#m         G       A 
e|----------------------------------------|
B|----------------------------------------|
G|----9h10h11-9----11-----9h10h11-9-------|
D|-12-----------12-----12-----------12----|
A|-------------------------------------12-|
E|----------------------------------------|

           D       F#m         G       A 
e|----------------------------------------|
B|----------------------------------------|
G|----9h10h11-9----11-----9h10h11-9-------|
D|-12-----------12-----12-----------12----|
A|-------------------------------------12-|
E|----------------------------------------|

           D       F#m         G       A 
e|----------------------------------------|
B|----------------------------------------|
G|----9h10h11-9----11-----9h10h11-9-------|
D|-12-----------12-----12-----------12----|
A|-------------------------------------12-|
E|----------------------------------------|

           D       F#m         G       A 
e|----------------------------------------|
B|----------------------------------------|
G|----9h10h11-9----11-----9h10h11-9-------|
D|-12-----------12-----12-----------12----|
A|-------------------------------------12-|
E|----------------------------------------|

            D            F#m              G                     A 
e|-----------------------------------------------------------------------|
B|---------------------------------15-15-15---17p15----------------------|
G|--------------------14-14--14h16------------------16-14h16p14----------|
D|-------12-12--14h16-------------------------------------------14h16p14-|
A|-12h14-----------------------------------------------------------------|
E|-----------------------------------------------------------------------|

    D            F#m          G            A 
e|-------------------------------------------------------------|
B|-------------------------------------------------------------|
G|-------------------------------------------------------------|
D|-12-------12h14-15-14-12----12-------12----------------------|
A|----12h14----------------14----12h14----12h14p12-------------|
E|-------------------------------------------------12h14p12-10-|

D F#m G A x3

            
            
Suggest correction
Creating personal tab
Creating personal tab
You can edit any tab online and save it as your Personal.

You can edit, replace or remove any tab part or add personal notes – all changes will be seen only by you.

Personal tabs can be accessed anytime from any device, even offline.
Learn more »
Give kudos to tab author, rate the tab!
1 2 3 4 5
comments
print report bad tab
guest
You may want to rate the tab now too:
select rating
Wanna post a correction for this tab? Suggest correction