Oops, an error
Loading. Please wait.

Te Quiero Chords

21 views 1 this week
no commentswrite comment
1 2 3 4 5
3 more votes to show rating
add to favorites
launch autoscroll
font size
0
reset
transpose
0
reset
display chords
guitar tuner
Autoscroll
slow
fast
+/-
esc
set tempo
stop
Help us to improve Ultimate-Guitar.com Take our survey!
×
   C                 F
E ---------------------------------------
B -------1--------1--------1------1------
G -----0--------0--------2------2--------
D ---------------------------------------
A -3--------3----------------------------
E -------------------1--------1----------


   C                 F        G
E ---------------------------------------
B -------1--------1--------1------3------
G -----0--------0--------2------4--------
D ---------------------------------------
A -3--------3----------------------------
E -------------------1--------3----------


     C                     C
Si no tengo un duro, yo soy un pelao
    F                     F
Las paso canutas desde el día 3.
      C                  C
Si no sé informática ni sprange deutsch,
  F                    G
Ni tengo el diploma de la facultad


ESTRIBILLO


  C
Te quiero
               F
Es todo lo que tengo
              G
Un tonto sentimiento
           C              G
Y ganas de besarte la nuca


Si no tengo coche ni tengo chalet
Ni tengo tarjeta en el Corte Inglés.
Si no soy amigo del portero de la bruja,
Ni tengo el muñeco gurú de las agujas


ESTRIBILLO


Si soy más pobre que el mono de Marco
Y no soy tan guapo como el niño del barco.
Si no tengo más que esta camisa
Y muchas ganas de darte una paliza


ESTRIBILLO
Suggest correction
Give kudos to tab author, rate the tab!
1 2 3 4 5
comments
print report bad tab
guest
You may want to rate the tab now too:
select rating
Wanna post a correction for this tab? Suggest correction