Oops, an error
Loading. Please wait.

Mueve Mueve Tab

32 views 1 this week
no commentswrite comment
1 2 3 4 5
3 more votes to show rating
add to favorites
launch autoscroll
font size
0
reset
how to read this tab
guitar tuner
×
Best way to learn
"Mueve Mueve"
Autoscroll
slow
fast
+/-
esc
set tempo
stop
"Melodía de la voz" estrofa

E---------------------------------------------------------------------------
B---------------------------------------------------------------------------
G----9----7-------6---------------------------------------------------------
D------9-----9-7----7--9---7-999---7-9--7-----------------------------------
A--7------------------------------------------------------------------------
E---------------------------------------------------------------------------


"Melodia Coro"

E---------------------------------------------------------------------------
B---------------------------------------------------------------------------
G---------------------------------------------------------------------------
D-----99-97---9997---99-97--99-11-9-----------------------------------------
A---------------------------------------------------------------------------
E---------------------------------------------------------------------------


 MIb   REb        LAb   REb       MIb
Para bailar tienes que mover tu cintura, cholita
 REb   LAb          REb
(ay,ay, ay qué rico mueve)

Para gozar tienes que mover tu figura, cholita
(ay,ay, ay qué rico mueve)

MIb         REb         LAb       REb
Mueve, mueve, ay, tu cintura mueve
          MIb       REb         LAb   REb
Ay, qué locura mueve, ay, qué ricura

Para bailar tienes que mover tu cintura, cholita
(ay,ay, ay qué rico mueve)
para gozar tienes que mover tu figura, cholita
(ay,ay, ay qué rico mueve)

Mueve, mueve, ay, tu cintura mueve
Ay, qué locura mueve, ay, qué ricura
Suggest correction
Give kudos to tab author, rate the tab!
1 2 3 4 5
comments
print report bad tab
guest
You may want to rate the tab now too:
select rating
Wanna post a correction for this tab? Suggest correction