Oops, an error
Loading. Please wait.

La Reina Del Bulevar Chords

13 views 1 this week
no commentswrite comment
1 2 3 4 5
3 more votes to show rating
add to favorites
×
Save as Personal and add changes to this tab that will be seen only by you. Learn more ›
×
You can save this tab as Personal to edit and correct it or add notes. All changes will be seen only by you. Learn more »
save as personal
new!
launch autoscroll
font size
0
reset
transpose
0
reset
display chords
guitar tuner
Autoscroll
slow
fast
+/-
esc
set tempo
stop
Strumming
There is no strumming pattern for this song yet. and get +5 IQ
Enrique Moraño
Sevilla (España)
emorano@


Fm#: 244222
Bm:  224432
C#:  143121 (446664)
F#:  244322


Vámonos!

[intro guitarra eléctrica]
       F#m                        
E-||---------------------------------------------------------------(0)---
B-||---1/2--2-2--1/2--2-2--1/2--2-2--1/2--2-2----------------------(2)---
G-||---------4-5-5/7-----------5-4--2----------4--2-----------------2----
D-||-----5-7-----------5------------------------------4--2---4-----(2)---
A-||---------------------------------------------------------------(0)---
E-||---------------------------------------------------------------(0)---

E-||---------------------------------------------------------------(0)---
B-||---1/2--2-2--1/2--2-2--1/2--2-2--1/2--2-2----------------------(2)---
G-||---------4-5-5/7-----------5-4--2----------4--2-----------------2----
D-||-----5-7-----------5------------------------------4--2---4-----(2)---
A-||---------------------------------------------------------------(0)---
E-||---------------------------------------------------------------(0)---


[parte1]
        F#m
Era la reina del bulevar
                       Bm
La conocía toda la ciudad
        C#
De pasarelas en Nueva York
                                 F#m
Ahora desfila en la barra de un bar

Movía el culo como ninguna
                           Bm
Y eso fue lo que me hizo caer
        C#
Me enredó entre sus labios ardientes
                                      F#m
Dejando bien claro lo que esto iba a ser


[estribillo]
         Bm  C#               F#m
Vas a tener      que acostumbrarte
           Bm                 C#               F#m   F#
Pues mis ojitos los voy a clavar en todas tus partes
           Bm  C#              F#m
Y en mi reloj      ya son las doce
      Bm                    C#             D    
Otra vez me abandonas, mi amor, para desnudarte
                      C#
Uoh, no, no, no, no, no


[parte2]
           F#m
Me dijo: 'Juan, ponte a cantar
                                   Bm
Mientras distraigo a todo el personal
        C#
El manager sospecha ya 
                              F#m
Y nada de hombres me hizo firmar'

Yo si tu quieres saco papeles
                          Bm
Y te busco un trabajo normal
      C#
Pero no desesperes mis nervios 
                               F#m
Diciendo que vales y luego te vas


[estribillo]

[intro & solo]

[parte1]
        
[estribillo]x2

[intro]

Reina del bulevar,
Reina del bulevar,
Reina del bulevar,
Reina del bulevar.
Suggest correction
Give kudos to tab author, rate the tab!
1 2 3 4 5
comments
print report bad tab
guest
Wanna post a correction for this tab? Suggest correction