Oops, an error
Loading. Please wait.

Le Llaman Guerrero Tab

version 2
version 2

Whole song

346 views 1 this week
1 commentread comment
1 2 3 4 5
2 more votes to show rating
add to favorites
launch autoscroll
font size
0
reset
how to read this tab
guitar tuner
Autoscroll
slow
fast
+/-
esc
set tempo
stop
Help us to improve Ultimate-Guitar.com Take our survey!
×
Esto es lo que se toca en la guitarra eléctrica en la canción
?Le llaman Guerrero? de Juan Carlos Alvarado del álbum: ?FUEGO?,
ésta es mi primera transcripción, espero les guste y les sea de
bendición y pues es para la honra y gloria de Dios. Por favor no
sean mala onda y voten.


1ª Parte:
e------------------------------------------------------------------
B--------12--8-10-12--15-10--8v--8s10-10-12-12s13v-----------------
G--9s2-------------------------------------------------------------
D------------------------------------------------------------------
A------------------------------------------------------------------
E------------------------------------------------------------------

2ª Parte:
e------------------------------------------------------------------
B------------8-10-12-13-15v---17-----------------------------------
G-------------------------------------14---11s12-11-9vs2-----------
D-----9s1----------------------------------------------------------
A------------------------------------------------------------------
E------------------------------------------------------------------

3ª Parte (ya con la voz):
?le llaman guerrero??????..?
e------------------------------------------------------------------
B--5s1---------12-13-12-15s17v-------------------------------------
G------------------------------------------------------------------
D------------------------------------------------------------------
A------------------------------------------------------------------
E------------------------------------------------------------------
(después de la figura anterior se dice sólo una vez: ?le llaman
guerrero, Jehová de los ejércitos, y después en el siguiente ?le
llaman guerrero? van los acordes siguientes:)

Em, D, Bm y Em

pero se tocan sólo las cuerdas graves (D, A, y E)
sería asi:

             Em
le llaman guerrero

le llaman guerrero
               D          Bm            Em
le llaman  guerrero,  Jehová  de  los  ejércitos

Lo que sigue después de esto, antes de entrar de lleno a la parte
lenta del canto es improvisación (yo siempre la hago diferente y se
escucha bien)  pero acaba en la cuerda de ?e? en el traste 15, y de
ahí ya no lleva guitarra eléctrica hasta el final de esa parte donde
dice

             Em
le llaman guerrero

le llaman guerrero
              D                    Em
le llaman guerrero, Jehová de los ejércitos
             Em
le llaman guerrero

le llaman guerrero
              D         Bm         Em
le llaman guerrero, Jehová de los ejércitos

Y después de esto de nuevo hace improvisación pero ésta vez acaba
en la cuerda ?B? en el traste 15, y después de esto ya va la parte
rápida del canto, comienza con unos cortes y después de que el bataco
marca 4 tiempos así quedarían los cortes:

Em____________Em_D___Bm____D_Em_______________Em_D_________Bm

En el primer acorde (Em) se apagan las cuerdas luego luego después
de tocar, el segundo acorde (Em) se deja que suene pero el tercero
[D] también se apaga y después el cuarto [Bm] se deja que suene,
los dos siguientes (D;Em) también se apagan, después el séptimo (Em)
se deja sonar pero el siguiente (D) se apaga y el último (Bm) se deja
sonar.

En seguida esto se toca en redondas lo siguiente:

Em

D

Bm (en está ultima se levantan los dedos al final del tiempo)

Después va la siguiente figura:

e----------15-12------------------------------------------
B--12-13--------------------------------------------------
G---------------------------------------------------------
D---------------------------------------------------------
A---------------------------------------------------------
E---------------------------------------------------------

Después otra vez se toca lo siguiente en redondas:

Em

D

Bm              Y después un corte doble apagando las cuerdas
                                         para entrar a la voz:

Em---Em

Y después de esto ya va el canto con la voz:

Cuentan de un Dios que hace maravillas dándole poder a su pueblo
Gracias a Él conquistaron reinos tomaron ciudades en su nombre,
Fue cantando, otras veces gritando acompañados de sonido de bocina
Fue cantando, otras veces gritando a viva voz a su Dios
Columna de fuego, nube en el desierto Peña de Horeb para todo el
sediento
Columna de fuego, nube en el desierto Peña de Horeb para todo el
sediento
Le llaman Guerrero, le llaman Guerrero, le llaman Guerrero,
Jehová de los ejércitos
Le llaman Guerrero, le llaman Guerrero, le llaman Guerrero,
Jehová de los ejércitos

***          Em
Le llaman guerrero
             Em
Le llaman guerrero
              D                              Em/Em (estos cortes
Le llaman guerrero, Jehová de los ejércitos       son los mismos que
                                                     hace arriba)

             Em
Le llaman guerrero
             Em
Le llaman guerrero
              D                              Em/Em
Le llaman guerrero, Jehová de los ejércitos

***Esta parte se toca así: 1 negra, 2 corcheas, 2 corcheas y 1 negra
(eso hace los 4 tiempos)


A CONTINUACIÓN LES PONGO LOS ACORDES TABULADOS POR SI NO SE LOS
SABEN:

Em:                D                     Bm
e--0               e--0                  e--0
B--0               B--0                  B--0
G--9               G--7                  G--4
D--9               D--7                  D--4
A--7               A--5                  A--2
E--0               E--0                  E--0

v: vibratto (mover dedo hacía arriba y hacia abajo pero sin soltar la
cuerda)
s: slide (deslizar sin despegar el dedo, ej.: 9s2 tocar el 9 y
deslizar hasta el traste 2)

Pues esa es toda la canción de ?le llaman Guerrero?, a mí en lo
personal me gusta mucho esta rola y pues un saludo para todos los de
mi congre en Acolman, Estado de México ?Punto de Encuentro Ríos de
Agua Viva?, un saludo a mi carnalito el César, para el buen Moi
(gracias por enseñarme a tocar la lira y la bataka. Ésta rola la
saque toda yo solo y sin ayuda, y pues para llevar apenas poko menos
d 6 meses de aprender a tocar la lira yo creo que es ganancia no mi
Moi?) saludos a mis pastores Alex y Lolita, que para mí son los
mejores de todo el mundo, gracias por su apoyo y por creer en mí,
pero sobre todo gracias a mi Señor Jesús por haberme dado éste don
y éste talento para alabarle, ?i praise you my sweet Jesus?, también
le mando muchos besos y abrazos a la niña linda Yulay, y pues tu bien
sabes que pase lo que pase siempre, escucha bien, siempre vas a ser
la niña linda que ocupa y ocupará el primer lugar en my heart, besos
Yulay!!!!!

PD: Si quieren ésta canción en guitarra acústica o alguna canción
(ya sea de Hillsong, Rojo, Alex Campos o de kien sea) akí les dejo mi
correo, ésta canción en la guitarra acústica quedó mejor que la
original, mi korreo es:  y si no kieren
canciones sino alguien kon kien cotorrear pues también agréguenme
jeje.

Hecha x el Blind (Billy).
Suggest correction
Give kudos to tab author, rate the tab!
1 2 3 4 5
comments
print report bad tab
1 comment total.
0 reply
George_Tenox 10 Apr 03, 2015 03:45 PM

Excelente!!!!!!!!!! Alguien que se toma la molestia de dar tips sobre las canciones.

guest
You may want to rate the tab now too:
select rating
Wanna post a correction for this tab? Suggest correction