Oops, an error
Loading. Please wait.

Tomamos Autoridad Tab

49 views 1 this week
no commentswrite comment
1 2 3 4 5
3 more votes to show rating
add to favorites
launch autoscroll
font size
0
reset
how to read this tab
guitar tuner
Autoscroll
slow
fast
+/-
esc
set tempo
stop
Help us to improve Ultimate-Guitar.com Take our survey!
×
INTRO (empieza con 3 Mis/E)

1ra parte
e|-------|-----------------------------------------|----10-|----------|
B|-------|-10-12-13-12-10--8-10-10-8-10--13-12-12--|-13----|-13-12-10-|
G|-9-9-9-|-----------------------------------------|-------|----------|
D|-9-9-9-|-----------------------------------------|-------|----------|
A|-7-7-7-|-----------------------------------------|-------|----------|
E|-------|-----------------------------------------|-------|----------|

2da parte                      y se entra al verso con:  F  G
e|----------------------------------------|------------|------|
B|-10-12-13-12-10--8-10-10-8-10--13-12-12-|-12-10-8-10-|------|
G|----------------------------------------|------------|------|
D|----------------------------------------|------------|-3--5-|
A|----------------------------------------|------------|-3--5-|
E|----------------------------------------|------------|-1--3-|

Arreglos del teclado en las estrofas:

"tomamos autoridad contra toda potestad"
e|------------------------|
B|-10-8-10-10-10--10-8-10-|
G|------------------------|

"tomamos autoridad en el nombre de Jesús"
e|------------------|
B|-8-10-10--10-8-10-|
G|------------------|

Cuando se entra al coro hay un arreglo rápido con las trompetas(0:30):

e|-------13-15-17-----17-15-13-|
B|-13-15-----------------------|
G|-----------------------------|

PUENTE

Es el enlace al punteo de Le Llaman Guerrero y el fin de esta cadena,
y comienza en el min. 2:07. Para llegar al puente, se tocan la intro
(excepto F G) y sigue esto:
                                                          E E E
e|------------------------------------|-----------------|-------|
B|-8-10-12--10-12-13--12-13-15--13-15-|-17-17--15-16-17-|-------|
G|------------------------------------|-----------------|-9-9-9-|
D|------------------------------------|-----------------|-9-9-9-|
A|------------------------------------|-----------------|-7-7-7-|
E|------------------------------------|-----------------|-------|

Acordes en 2:13
   A  G   A  G     A-G-A    G-A      G-A
e|-------------------------------|---------
B|-10-8---10-8----10-8-10---8-10-|---8-10--
G|-9--7---9--7----9--7-9----7-9--|---7-9----
D|-7--5---7--5----7--5-7----5-7--|---5-7----
A|-------------------------------|---------
E|-------------------------------|---------...

Arreglo final(el de Le Llaman Guerrero, min. 2:17)
e|--------------10-|--------------------|-------------10-----|
B|-12-12-10-12-----|-12-12-10-12--12-12-|-10-10-8-10------12-|
G|-----------------|--------------------|--------------------|

e|-------10-----|
B|-----------12-|
G|-11-12--------|

e|--------------10-|--------------------|-------------10-|
B|-12-12-10-12-----|-12-12-10-12--12-12-|-10-10-8-10-----|
G|-----------------|--------------------|----------------|

Y se termina con la escala de Eres Señor Vencedor:
e|-----------5---5-|
B|-----5-8-----8---|
G|-5-7-------------|

Cualquier duda o sugerencia de una canción chida para sacar en
guitarra, no importa si son arreglos específicamente de este
instrumento, de violín, trompetas o teclado, contáctenme

saviour_king@

DLB
Suggest correction
Give kudos to tab author, rate the tab!
1 2 3 4 5
comments
print report bad tab
guest
You may want to rate the tab now too:
select rating
Wanna post a correction for this tab? Suggest correction