Oops, an error
Loading. Please wait.

Tu Mereces Gloria Tab

67 views 1 this week
no commentswrite comment
1 2 3 4 5
3 more votes to show rating
add to favorites
launch autoscroll
font size
0
reset
how to read this tab
guitar tuner
×
Best way to learn
"Tu Mereces Gloria"
Autoscroll
slow
fast
+/-
esc
set tempo
stop
EN EL INTRO DESPUES DE LOS METALES ASE ALGO ASI:

E----12/141210--------10/1210-10/9-10p9-----
B--10---------------10-----------------10/12
G-------------------------------------------
D-------------------------------------------
A-------------------------------------------
E-------------------------------------------

1.23

E-------17--------17--------15171417-----
B--14h15-----14h15-----14h15--------17---
G----------------------------------------
D----------------------------------------
A----------------------------------------
E----------------------------------------

SOLO:
E--12/15--12/11--15141514/12--------12----1212b1512----12-----12/1417
B--------------12-----------15121512--1215---------1512--12-18-------
G--------------------------------------------------------------------
D--------------------------------------------------------------------
A--------------------------------------------------------------------
E--------------------------------------------------------------------

E-------1415-----------------17/1917--
B--10h12----15---------121314---------
G-------------1413--------------------
D-------------------------------------
A-------------------------------------
E-------------------------------------


Y EN LA ULTIMA PARTE..

E-------17--------17--------17-------------------17--
B--14h15-----14h15-----14h15-----20192019/17-1517----
G----------------------------------------------------
D----------------------------------------------------
A----------------------------------------------------
E----------------------------------------------------

AHI LES DEJO ESTO ESPERO Y SEA DE BENDICION MI CORREO centh_92@
por cualquier duda y aclaracion DIOS LES BENDIGA
Suggest correction
Give kudos to tab author, rate the tab!
1 2 3 4 5
comments
print report bad tab
guest
You may want to rate the tab now too:
select rating
Wanna post a correction for this tab? Suggest correction