Oops, an error
Loading. Please wait.

Carta De Un Leon A Otro Tab

version 1
version 1

Whole song

43 views 1 this week
no commentswrite comment
1 2 3 4 5
3 more votes to show rating
add to favorites
launch autoscroll
font size
0
reset
how to read this tab
guitar tuner
Autoscroll
slow
fast
+/-
esc
set tempo
stop
Help us to improve Ultimate-Guitar.com Take our survey!
×
   
Introduccion:
       
1------------------------------------------------------------
2-0-0--------------0-3-0---1----1--------------------3---0---
3-----2-0---------0----------2------2-2-0----------2---2-0---
4---------4-2-----------------2-----------4-2-0--4-------2---
5--------------------------0-----------------------------2---
6------------------------------------------------------------

1-------------------------------------------7-5-4------------
2-0-3p5-3-1-0-----1p3-1-0-----0-1-0--------------------------
3-------------2-2---------2-0-------2-0----------------------
4----------------------------------------4-------------------
5------------------------------------------------------------
6------------------------------------------------------------


Em                         Am
Perdona hermano mío si te digo
      D7                         G
que ganas de escribirte no he tenido
    C              D7       Bm7            Em
No sé si es el encierro, no sé si es la comida
                    F#7           B7
o el tiempo que ya llevo en esta vida

Lo cierto es que el zool¢gico deprime
y el mal no se redime sin cariño
si no es por esos niños que acercan su alegría
sería más amargo todavía

  Em                    Am
A ti te irá mejor... espero
  Bm7                    Em
viajando por el mundo entero
     C                       Bm7
aunque el domador según me cuentas
     Am                           B7
te obligue a trabajar más de la cuenta

Tu tienes que entender hermano
que el alma tiene de villano
al no poder mandar a quien quisiera
descarga su poder sobre las fieras

          Em
Muchos humanos
          F
son importantes
          B7
silla mediante ... 
B7         Em
látigo en mano


Pero volviendo a mí: nada ha cambiado
aqu¡ desde que fuimos separados
Hay algo sin embargo que noto entre la gente
parece que miraran diferente
Sus ojos han perdido algún destello
como si fueran ellos los cautivos
Yo sé lo que te digo, apuesta lo que quieras
que afuera tiene miles de problemas

Caímos en la selva hermano 
y mira en qué piadosas manos
su aire está viciado de humo y muerte
y qui,n anticipar puede su suerte
Volver a la naturaleza
sería su mayor riqueza
allí podrán amarse libremente
y no hay ningún zoológico de gente

Cuidate hermano
yo no sé cuándo
pero ese día
viene llegando.
Suggest correction
Give kudos to tab author, rate the tab!
1 2 3 4 5
comments
print report bad tab
guest
You may want to rate the tab now too:
select rating
Wanna post a correction for this tab? Suggest correction