Oops, an error
Loading. Please wait.

Carta De Un Leon A Otro Tab

version 2
version 2

Whole song

55 views 1 this week
no commentswrite comment
1 2 3 4 5
3 more votes to show rating
add to favorites
launch autoscroll
font size
0
reset
how to read this tab
guitar tuner
×
Best way to learn
"Carta De Un Leon A Otro"
Autoscroll
slow
fast
+/-
esc
set tempo
stop
      Carta de un león a otro (versión Baglietto)
      Letra y música: Chico Novarro
      Intérpretes: Chico Novarro, Juan Carlos Baglietto
      Transcripción: Gerardo M. Estevez

     Em                                            Am        
E||-----------------------------|---------------------------|
B||-------0--0------------------|---------0--3--0--1--------|
G||-------------2--0------------|------------------2--------|
D||-------------------4--2------|------2--------------------|
A||-----------------------------|------------------0--------|
E||--0--------------------------|---------------------------|


  D                                         G             
-----------------------------|---------------------------|
-----------------------------|--------3-----0------------|
-----2--2--0-----------------|--0--2-----2--0------------|
--0-----------4--2--0--------|---------------------------|
-----------------------------|---------------------------|
-----------------------------|--------------3------------|


  Em             Am                         G                     
-----0--------------------------|--------------------------------|
--0-----3--1--0--------------3--|--1--0-----------------1--0-----|
-----------------2--2--2--2-----|--------2--0--0--0--0--------2--|
--------------------------------|--------------------------------|
--------------------------------|--------------------------------|
--------------------------------|--------------------------------|


     F#             B7              
--------------2--0----------------||
-----------2--------4------4-5-4--||
--0-----3-----------2----2--------||
-----4-----------------4----------||
--------------------2-------------||
----------------------------------||

   Em                      Am
Perdón, hermano mío, si te digo
     D            D7             G
que ganas de escribirte no he tenido.
   Am             D7         G     D/F#   Em   
No sé si es el encierro, no sé si es la comida
       C            F#            B7
o el tiempo que ya llevo en esta vida.
    Em                           Am
Lo cierto es que el zoológico deprime
      D          D7          G
y el mal no se redime sin cariño,
      Am          D7          G     D/F#    Em
si no es por esos niños que acercan su alegría
   C         F#        B7
sería más amargo todavía.
  Em                  Am
A ti te irá mejor, espero,
    D           D/F#      Em
viajando por el mundo entero,
     Am        C              F#    
aunque el domador, según me cuentas,
     C             Am            B7
te obligue a trabajar más de la cuenta.
    Em                     Am
Tú tienes que entender, hermano,
       D          D/F#   Em   
que el alma tiene de villano,
   Am          C               F#   
al no poder mandar a quien quisiera
   C          Am              B7  
descarga su poder sobre las fieras.
         Em              F
Muchos humanos son importantes
         F#      B7       B7 Em
silla mediante, látigo en ma-no.

Pero, volviendo a mí, nada ha cambiado
aquí desde que fuimos separados.
Hay algo, sin embargo, que noto entre la gente,
parece que miraran diferente.
Sus ojos han perdido algún destello,
como si fueran ellos los cautivos.
Yo sé lo que te digo, apuesta lo que quieras,
que afuera tienen miles de problemas.
Caímos en la selva, hermano,
y mira en qué piadosas manos.
Su aire está viciado de humo y muerte.
¿a quién anticipar puede su suerte?
Volver a la naturaleza
sería su mayor riqueza.
Allí podrán amarse libremente,
y no hay ningún zoológico de gente.
Cuídate hermano, yo no sé cuándo,
pero ese día viene llegando.
Suggest correction
Give kudos to tab author, rate the tab!
1 2 3 4 5
comments
print report bad tab
guest
You may want to rate the tab now too:
select rating
Wanna post a correction for this tab? Suggest correction