Oops, an error
Loading. Please wait.

Era En Abril Tab

142 views 1 this week
no commentswrite comment
1 2 3 4 5
3 more votes to show rating
add to favorites
launch autoscroll
font size
0
reset
how to read this tab
guitar tuner
Autoscroll
slow
fast
+/-
esc
set tempo
stop
Help us to improve Ultimate-Guitar.com Take our survey!
×
G                              C                  G
Sabes hermano lo triste que estoy
|-------------------------------------------------------|
|----0------------0---------1----------------0----------|
|-------0-----------0---------0----------------0--------|
|--0------0----0-----0---2-----2--------0-------0-------|
|------------------------3------------------------------|
|3------------3------------------------3----------------|
D                                          C                             G
Se me ha hecho vuelo de trinos y sangre la voz
|------2-----------------2------------0----------0--------------------------------|
|-----------3---------------3------------1----------1-------0-----------0---------|
|----2----------2------2------2-----0-----0---0-----0-------0------------0--------|
|0--------------------0-------------------------------------0----0----0-------0---|
|----------------------------------3-----------3----------------------------------|
|---------------------------------------------------------3----------3------------|
    %                           Em          E#m7             Em7
Se me ha hecho pedazos,       mi sueño  mejor
|----------------------------0-------------0------------0-----------0--------------|
|------0-----------------------0--------------0-----------0-----------0------------|
|--------0-----------------0-----0----0--------0-----0-----0----0-----0------------|
|---0--------0----------2-----------1--------------0-------------------------------|
|----------------------------------------------------------------4-----------------|
|3---------------------------------------------------------------------------------|
Ebm7                    D                                      C                                     G
Se ha muerto mi niño, mi niño mi              ni---ño, mi niño hermano
|-------0-----------------2--------------2---------------0-----------0------------------------|
|----------0-----------------3--------------3---------------1----------1----------0-----------|
|-----0-------0-------2--------2-----2--------2-------0------0---0-----0-----------0----------|
|-------------------0---------------0--------------------------------------------0--------0---|
|--4-------------------------------------------------3-------------3--------------------------|
|-------------------------------------------------------------------------------3-------------|

No pudo llenarse la boca de voz,
apenas vacio el vientre de mi dulce amor
Enorme y azul, la vida se le dio,
No pudo tomarla, no pudo tomarla
de tan pequeño.

Yo le habia hecho una blanca cancion
del amor entre una nube y un pez volador
lo soñe volando abrigado en sudor
las mejillas llenas, las mejillas llenas
de sol y dulzón

Estribillo:


G             D/Gb              Em         Bm
Era en abril un el ritmo ti---------bio
|-------------------------------------------------------|
|-----3------------3------------0-------------3---------|
|-------4-------------2------------0-------------4------|
|---0-----0-----0-------0----2------2----4--------4-----|
|----------------------------------------2--------------|
|3-----------2--------------0---------------------------|

C                 D                     G
de mi chiquito que danzaba
|-----------------------2-----------------------|
|-------1-----------------3-------------0-------|
|---------0---------2-------2------------0------|
|---2-------2---0-------------------0-----0-----|
|3----------------------------------------------|
|----------------------------------3------------|

Dentro del vientre,             un prado en flor, era su
|--------------------0--------------0--------------0-----------0-------|
|-----0-----------------0--------------0-------------0-----------0-----|
|--------0--------0-------0-----0--------0------0-----0----0------0----|
|--0--------0--2-------------1----------------0-----------4------------|
|----------------------------------------------------------------------|
|3---------------------------------------------------------------------|
lecho y el ombligo y el ombligo,
|-------2----------------2--------------0-----------------------|
|----------3----------------3-------------1---------------------|
|----2--------2------2--------2-----0------0-----0--------------|
|-0-----------------0-------------------------------------------|
|-----------------------------------3------------3--------------|
|---------------------------------------------------------------|

El ombligo el sol
|---0----------------------------------------------------------------------|
|------1----------------0--------------------------------------------------|
|---------0-----------------0----------------------------------------------|
|--------------------0-----------0-----------------------------------------|
|--------------------------------------------------------------------------|
|-----------------3--------------------------------------------------------|

No busques hermano el camino mejor
que ya tengo el alma muda de pedirle a Dios
que hacemos ahora mi dulzura y yo
con los pechos llenos, con los pechos llenos
de leche y dolor-

Estamos pensando
seria mejor
el marcharnos tres
el marcharnos tres
que quedarnos dos

Estribillo
Suggest correction
Give kudos to tab author, rate the tab!
1 2 3 4 5
comments
print report bad tab
guest
You may want to rate the tab now too:
select rating
Wanna post a correction for this tab? Suggest correction