Oops, an error
Loading. Please wait.

Mirta De Regreso Bass Tab

37 views 3 this week
no commentswrite comment
1 2 3 4 5
3 more votes to show rating
add to favorites
launch autoscroll
font size
0
reset
guitar tuner
Autoscroll
slow
fast
+/-
esc
set tempo
stop
Help us to improve Ultimate-Guitar.com Take our survey!
×
Intro

G|--------|
D|-5-7*---|
A|--------|
E|--------|(x4) *: Prueben con el armonico en La

Verso

G|-------------------------------------------------|
D|---------------------5-4-2-------0-4-5-4-2-------|
A|-3-2-(2)-3-2-0-2-3-5-------5-3-5-----------5-3-5-|
E|-------------------------------------------------|

G|-------|
D|-5-7*--|
A|-------|
E|-------|(x4)

Verso

G|--------------------------|
D|-----5-----4------5-----4-|
A|-5s3---3s2--(2)-3---3s2---|
E|--------------------------|

G|----------------------------------------------------------|
D|----------------(0-4)-5-4-2-----------(0-4)-5-4-2-----5s12|
A|-(0-2)-3-(2-3)5-------------5-3-(3)-5-------------5-3-----|
E|----------------------------------------------------------|

G|------9p7----------------------------|
D|-5-7------5-7--9p7-5-7--(7)(7s3)-5-7-|
A|-------------------------------------|
E|-------------------------------------|

Verso

G|--------------------------|
D|-----5-----4------5-----4-|
A|-5s3---3s2--(2)-3---3s2---|
E|--------------------------|

G|-------------------------------------------------------|
D|--------------(0-4)-5-4-2-------------(0-4)-5-4-2------|
A|-(0-2)-3-(3)5-------------5-3-(2-3)-5-------------5-3-5|
E|-------------------------------------------------------|

G|-------|
D|-5-7*--|
A|-------|
E|-------|(x4)

Versos que siguen iguales a los anteriores

Final "Solo algunas noches..."

G|----------------7-------5-4-2-0||
D|-----5-4-2----7-------5--------||
A|-3-5--------5----5s-3----------||
E|-------------------------------||
Suggest correction
Give kudos to tab author, rate the tab!
1 2 3 4 5
comments
print report bad tab
guest
You may want to rate the tab now too:
select rating
Wanna post a correction for this tab? Suggest correction