Oops, an error
Loading. Please wait.

Sobre La Cuerda Floja Tab

16 views 3 this week
no commentswrite comment
1 2 3 4 5
3 more votes to show rating
add to favorites
launch autoscroll
font size
0
reset
how to read this tab
guitar tuner
×
Best way to learn
"Sobre La Cuerda Floja"
Autoscroll
slow
fast
+/-
esc
set tempo
stop
Solo Guitarra 3:47

E||--------|-------------------------------------|
B||--5s-6s-|--5~------------5s--6s--5~------5s-6-|
G||--------|-------------------------------------|
D||--------|-------------------------------------|
A||--------|-------------------------------------|
E||--------|-------------------------------------|


--8-----------------------------|--8----7-------------------7----|
------8-----------------------5-|------------8----9----5---------|
----------7~--------------------|--------------------------------|
--------------------------------|--------------------------------|
--------------------------------|--------------------------------|
--------------------------------|--------------------------------|


--11b~------15--11b----10-8-12------------12--|
----------------------------------10--13------|
----------------------------------------------|
----------------------------------------------|
----------------------------------------------|
----------------------------------------------|


--17------17--15--13--17--17--17~--|
-----------------------------------|
-----------------------------------|
-----------------------------------|
-----------------------------------|
-----------------------------------|

Repite hasta irse, que suene bien..con distorción :p
Suggest correction
Give kudos to tab author, rate the tab!
1 2 3 4 5
comments
print report bad tab
guest
You may want to rate the tab now too:
select rating
Wanna post a correction for this tab? Suggest correction