Oops, an error
Loading. Please wait.

Si Te Basta Tab

1 view 1 this week
no commentswrite comment
1 2 3 4 5
3 more votes to show rating
add to favorites
launch autoscroll
font size
0
reset
how to read this tab
guitar tuner
×
Best way to learn
"Si Te Basta"
Autoscroll
slow
fast
+/-
esc
set tempo
stop
INTRO:

1|---------10--------------8---------------7--------------5----------------
2|------12----12--------10---10----------8---8----------7---7--------------
3|---12----------12---7---------7------7-------7------7-------7------------
4|-------------------------------------------------------------------------
5|-10---------------9-------------9--7-----------7--5-----------5----------
6|-------------------------------------------------------------------------

1|-------3------------2---------------0-3-------2&3&2---------0---0--------
2|-----5---5--------3---3---------1-3---------3-------3-------------3-1----
3|---5-------5----4-------4-----2-----------2-----------2---2---2-------2-0
4|----------------------------------------4---------------0----------------
5|-3----------3-2-----------2-0--------------------------------------------
6|-------------------------------------------------------------------------


ESTROFA_1:

1|-------3--------------2--------------------------------------------------
2|-----3---3---3------3---3---3-------0--------------3-------------1-------
3|---0-------0------2-------2-------0---0---0------2---2---2-----0---0---0-
4|----------------0---------------2-------2------4-------4-----2-------2---
5|---------------------------------------------2--------------3------------
6|-3----------------------------0------------------------------------------

1|---------------------3-----2-----------0---0--------------------
2|-------1-----------3---3-----3---------------3-1----------------
3|-----0---0-------2-------2-----2-----2---2-------2-0------------
4|---2-------2---0-------------------0----------------------------
5|-3--------------------------------------------------------------
6|----------------------------------------------------------------


ESTROFA_2:

1|-------3-------------2---------------------------------------------------
2|-----3---3---3-----3---3---3-------0--------------3--------------1-------
3|---0-------0-----2-------2-------0---0---0------2---2---2------0---0--0--
4|---------------0---------------2-------2------4-------4------2-------2---
5|--------------------------------------------2--------------3-------------
6|-3---------------------------0-------------------------------------------

1|---------------------3-----2-----0------------------------------
2|-------1-----------3---3-----3-----3----------------------------
3|-----0---0-------2-------2-----2-----2--------------------------
4|---2-------2---0------------------------------------------------
5|-3--------------------------------------------------------------
6|----------------------------------------------------------------


ESTROFA_3:

1|-------3-------------2--------2------------------------------------------
2|-----3---3---------3--------1----------0---------------3-----------------
3|---0-------0-----2--------2----------0---0---0-------2---2---2-----------
4|---------------0--------1----------2-------2-------4-------4-------------
5|-------------------------------------------------2-----------------------
6|-3-------------------------------0---------------------------------------

1|-------------------------------------------------------------------------
2|-------1---------------3-------------------------------------------------
3|-----0---0---0-------0---0---0-------0-----0-----0-----0-----------------
4|---2-------2-------0-------0-------2-----0-----0-----0-------------------
5|-3-------------------------------3-----2-----0---------------------------
6|-----------------3---------------------------------3---------------------

1|-------3-----2-----------0---0----------------------------------
2|-----3---3-----3---------------3-1------------------------------
3|---2-------2-----2-----2---2-------2-0--------------------------
4|-0-------------------0------------------------------------------
5|----------------------------------------------------------------
6|----------------------------------------------------------------


ESTROFA_4:

1|-------3--------------2--------------------------------------------------
2|-----3---3---3------3---3---3--------0--------------3--------------1-----
3|---0-------0------2-------2--------0---0---0------2---2---2------0---0--0
4|----------------0----------------2-------2------4-------4------2-------2-
5|----------------------------------------------2--------------3-----------
6|-3----------------------------0------------------------------------------

1|----------------------------------------------------------------
2|-------3--------------------------------------------------------
3|-----0---0---0-------0-----0-----0-----0------------------------
4|---0-------0-------2-----0-----0-----0--------------------------
5|-----------------3-----2-----0----------------------------------
6|-3---------------------------------3----------------------------

1|-------3-----2-----------0---0----------------------------------
2|-----3---3-----3---------------3-1------------------------------
3|---2-------2-----2-----2---2-------2-0--------------------------
4|-0-------------------0------------------------------------------
5|----------------------------------------------------------------
6|----------------------------------------------------------------


ESTROFA_5:

1|-------3--------------2--------------------------------------------------
2|-----3---3---3------3---3---3--------0--------------3--------------1-----
3|---0-------0------2-------2--------0---0---0------2---2---2------0---0--0
4|----------------0----------------2-------2------4-------4------2-------2-
5|----------------------------------------------2--------------3-----------
6|-3----------------------------0------------------------------------------

1|-------------------------------------------------3-----2--------
2|-------3---------------------------------------3---3------------
3|-----0---0---0-------0-----0-----0-----0-----2-------2----------
4|---0-------0-------2-----0-----0-----0-----0--------------------
5|-----------------3-----2-----0----------------------------------
6|-3---------------------------------3----------------------------


ESTROFA_6:

1|-----0-------3--------------2--------------------------------------------
2|-3---------3---3---3------3---3---3--------0--------------3--------------
3|---2-----0-------0------2-------2--------0---0---0------2---2---2--------
4|----------------------0----------------2-------2------4-------4----------
5|----------------------------------------------------2--------------------
6|-------3----------------------------0------------------------------------

1|----------------------------------------------------------------
2|-------1--------------3--------------1--------------------------
3|-----0---0---0------0---0---0------0---0---0--------------------
4|---2-------2------0-------0------2-------2-----0----------------
5|-3-----------------------------3--------------------------------
6|----------------3-----------------------------------------------


ESTROFA_7:

1|-----0--------3--------------2-------------------------------------------
2|---3--------3---3---3------3---3---3--------0--------------3-------------
3|-2--------0-------0------2-------2--------0---0---0------2---2---2-------
4|-----------------------0----------------2-------2------4-------4---------
5|-----------------------------------------------------2-------------------
6|--------3----------------------------0-----------------------------------

1|----------------------------------------------------0-----------
2|-------1--------------3--------------1------------3---3---------
3|-----0---0---0------0---0---0------0---0---0----2-------2-------
4|---2-------2------0-------0------2-------2----0-----------------
5|-3-----------------------------3--------------------------------
6|----------------3-----------------------------------------------


ENSEGUIDA SE TOCA EL INTRO Y AL ACAVAR SE TOCA EL ACORDE: SOL

____________________

INTRO


ESTROFA_1

Yo no podre llevarte a esos lugares
donde sirven los meseros con guantes
y hasta el menú viene en francés


ESTROFA_2

Quizá no te llene de joyería
pero a cambio te doy mis fantasías
mírame que esto es lo que soy


ESTROFA_3

No te ofrezco un penthouse te doy mi corazón
si no te basta vete sin decir adiós
solo tengo canciones que hablan de amor
tan solo soy un trovador


ESTROFA_4

No tengo grandes cuentas de banco
ni un mercedez afuera estacionado
ni una casa de lujo
ni servidumbre que lave los platos sucios


ESTROFA_5

No soy mas de lo que ahora puedes ver
un ser humano hecho de papel
humano al fin y al cabo
con virtudes y errores
tal como el de al lado


ESTROFA_6

Y estaré aquí para ti por siempre hasta el fin
si te basta lo que soy
si aceptas lo poco o mucho
que te de mi corazón


ESTROFA_7

Y estaré aquí para ti por siempre hasta el fin
si aceptas lo que soy
solo otro tonto loco mas
que te ofreció su corazón.


 DE: ALGUIEN QUE TE AMA....Y QUE TE DEDICA CON MUCHO CARIÑO

     PARA: TI, PUES ERES MUY ESPECIAL EN MI:  KAREN BEATRIZ......
Suggest correction
Give kudos to tab author, rate the tab!
1 2 3 4 5
comments
print report bad tab
guest
You may want to rate the tab now too:
select rating
Wanna post a correction for this tab? Suggest correction