Oops, an error
Loading. Please wait.

No Importa Tab

34 views 1 this week
no commentswrite comment
1 2 3 4 5
3 more votes to show rating
add to favorites
launch autoscroll
font size
0
reset
how to read this tab
guitar tuner
×
Best way to learn
"No Importa"
Autoscroll
slow
fast
+/-
esc
set tempo
stop
Esta es una canción muy buena, de las mejores del disco.
Yo saqué todo lo que tiene que ver con la canción.
Cualquier duda síganme en Twitter: @HugoMiztli
o mándenme un correo a hugomiztli@
Está muy sencilla y fácil de tocar.
Disfrútenla.


ACORDES USADOS
   DO    SOL   LAmenor     RE
E|--0------3--------0---------2-----
B|--1------3--------1---------3-----
G|--0------0--------2---------2-----
D|--2------0--------2---------0-----
A|--3------2--------0---------------
E|---------3------------------------


INTRO
  DO    SOL    DO     SOL     RE
E|--0------3------0------3------2-----
B|--1------3------1------3------3-----
G|--0------0------0------0------2-----
D|--2------0------2------0------0-----
A|--3------2------3------2------------
E|---------3-------------3------------
*En esta parte son los acordes que usan pero
ustedes denle el ritmo adecuado


DO
El color y el collar
SOL
de los besos que tú me das
DO
que van bajando que se van
SOL              RE
solo le pintan bien


        DO
Y para siempre
        SOL
es una idea que hay que soltar
       DO
todo cambia en este viaje
   SOL              RE
contigo quiero viajar


             SOL                DO
No importa saber si hay más allá
             LAm              RE
no importa si yo decido o escrito está
          DO                 SOL
y nunca importa si hay un Dios o más,
          LAm                DO          SOL
lo que importa es que ahora te puedo besar


PUENTE
INSTRUMENTO 1
E|----------------------------------------------------
B|------7--8-----8--10--8----------7--8-----8--10--8--
G|------------9--------------------------9------------
D|--10--------------------------9---------------------
A|----------------------------------------------------
E|----------------------------------------------------

E|---------------------------------------------
B|------7--8-----8--10--8----------------------
G|------------9--------------------------------
D|--10--------------------------9----9-7--9-7--
A|---------------------------------------------
E|---------------------------------------------

INSTRUMENTO 2 (acompaña tocando los acordes)
DO - SOL - DO - SOL - RE


DO                     SOL
No sabemos nunca lo que puede pasar.
       DO                  SOL            RE
Y nos vamos aferrando a que eso se puede dar,
        DO             SOL
y como tú, ninguna, y vida solo hay una,
      DO                    SOL            RE
y yo nunca pude imaginar contigo poder bailar


             SOL                DO
No importa saber si hay más allá
             LAm              RE
no importa si yo decido o escrito está
          DO                 SOL
y nunca importa si hay un Dios o más,
          LAm                DO          SOL
lo que importa es que ahora te puedo besar

        DO                 SOL
nunca importa si hay un Dios o más,
          LAm                DO          SOL
lo que importa es que ahora te puedo besar


PUENTE/FINAL
INSTRUMENTO 1
E|----------------------------------------------------
B|------7--8-----8--10--8----------7--8-----8--10--8--
G|------------9--------------------------9------------
D|--10--------------------------9---------------------
A|----------------------------------------------------
E|----------------------------------------------------

E|---------------------------------------------
B|------7--8-----8--10--8----------------------
G|------------9--------------------------------
D|--10--------------------------9----9-7--9-7--
A|---------------------------------------------
E|---------------------------------------------

INSTRUMENTO 2 (acompaña tocando los acordes)
DO - SOL - DO - SOL - RE


Eso fue todo, diviértanse y disfruten la buena música.
Suggest correction
Give kudos to tab author, rate the tab!
1 2 3 4 5
comments
print report bad tab
guest
You may want to rate the tab now too:
select rating
Wanna post a correction for this tab? Suggest correction