Oops, an error
Loading. Please wait.

Wallys Blues Tab

25,231 views 72 this week
2 commentsread comments
1 2 3 4 5
x 4
add to favorites
×
Save as Personal and add changes to this tab that will be seen only by you. Learn more ›
launch autoscroll
font size
0
reset
how to read this tab
guitar tuner
Autoscroll
slow
fast
+/-
esc
set tempo
stop
Difficulty
intermediate
[Intro]
e|-1------------|
B|---2-1--------|
G|-------3------|
D|--------------|
A|--------------|
E|--------------|

[Solo]
e|----------------------------------------------------------------------|
B|----------------------------------------------------------------------|
G|----9br-7-6h7p6-6h7p6------6h7--7h9--9(1/2)br-------------------------|
D|--x------------------9-7-9----9----9----------------------------------|
A|----------------------------------------------------------------------|
E|----------------------------------------------------------------------|

e|----------------------------------------------------------------------|
B|------10------------------------------------10------------------------|
G|----9b--9b-7-9---9-7-6-6h7p6-----6h7-7h9-9b---------------------------|
D|--x------------9------------9-7-9---9---9-----------------------------|
A|----------------------------------------------------------------------|
E|----------------------------------------------------------------------|

e|-----------------------------------------------10-9-9h10p9--9---------|
B|---7h8p7---5/7--10--------------------/8-10-12------------12----------|
G|--9-----9-7---9b--9b-7-9p7-7-9-7--------------------------------------|
D|--------------------------9------9------------------------------------|
A|-----------------------------------7----------------------------------|
E|----------------------------------------------------------------------|

e|----------------------------------------------------------------------|
B|--10-12-14-12b~---10-12-14-12b~---10-12-14-12b~-12br10-12-------------|
G|-------------------------------------------------------------9br7-9-7-|
D|----------------------------------------------------------------------|
A|----------------------------------------------------------------------|
E|----------------------------------------------------------------------|

e|-------------------------------------------------------------------------------------------------|
B|-----------------------------------------------------10-10-10---10b-10p7----10p7-----------------|
G|-6-----------------------6h7-6h7---6h7/9-7-9/11-9-11----------11---------9b-----9b-7h9p7---------|
D|---9-7---7/9-----7---7h9---------9-------------------------------------------------------9-------|
A|-------9-----7-9---9-----------------------------------------------------------------------------|
E|-------------------------------------------------------------------------------------------------|

e|---------------------------------------------------------------7h10p7----------10-12-12b~-12b~---|
B|------------------------------------10-------------7-10b-10p7--------10p7-10/12------------------|
G|----------------7h9p7-7h9p7-9/11-11----11b-7-9--7/9----------9-----------------------------------|
D|-7h9p7------7-9------9-----9------------------9--------------------------------------------------|
A|------9-7-9--------------------------------------------------------------------------------------|
E|-------------------------------------------------------------------------------------------------|

e|-12brp10h12-10-9-10-9h10p9--9-----------------------------------------|
B|--------------------------12-12-10h12p10--10-------------12-10--------|
G|----------------------------------------11--11\-9-7/11-11-----10br/12~[
D|----------------------------------------------------------------------|
A|----------------------------------------------------------------------|
E|----------------------------------------------------------------------|

e|-----------------------------------------------10-9~------------------|
B|---7h8p7---5/7--10--------------------/8-10-12------------------------|
G|--------9-7---9b--9b-7-9p7-7-9-7--------------------------------------|
D|--------------------------9------9------------------------------------|
A|-----------------------------------7----------------------------------|
E|----------------------------------------------------------------------|

e|----------------------------------------------------------------------|
B|--10-12-14-12b~---10-12-14-12b~---10-12-14-12b~-12br10-12-------------|
G|-------------------------------------------------------------9br7-9-7-|
D|----------------------------------------------------------------------|
A|----------------------------------------------------------------------|
E|----------------------------------------------------------------------|

e|----------------------------|
B|----------------------------|
G|-6-7-6h7p6-6----------------|
D|----------9--9-7-9p7-7------|
A|--------------------9--9----|
E|-------------------------7--|

e|-----------------------------------------------------------------------------------------------------|
B|------10------------------------------------------------------------------7--------------------------|
G|----9b--9b-7-9---9-7-9---7-6-7-6h7p6---6-6---6---6h7p6---6-6h7---6h7--7-9---9-7-9b~------------------|
D|--x------------9---------------------9-----9-----------9-------9----9--------------------------------|
A|-----------------------------------------------------------------------------------------------------|
E|-----------------------------------------------------------------------------------------------------|

e|-------------------------------------------------------------------------------|
B|-7-10-10b-10-------------------------------------7~--7-7b(1/2)-7-7b(1/2)-------|
G|-------------9b-7---6h7p6---6------------6h7-7/9-------------------------------|
D|--------------------------9---9-7-7--7/9---------------------------------------|
A|-------------------------------------------------------------------------------|
E|-------------------------------------------------------------------------------|

(this is the feeling-filled part and maybe with the chorus effect)
e|-----------------------------------------------------------------------------------------------------|
B|-12-12-12\---14-14-14-14--15-15-15-15-17-17-17-17----------------------------------------------------|
G|-----------------------------------------------------------------------------------------------------|
D|-----------------------------------------------------------------------------------------------------|
A|-----------------------------------------------------------------------------------------------------|
E|-----------------------------------------------------------------------------------------------------|

e|-----------------------------------------------------------------------------------------------------|
B|-12-12-12\---14-14-14-14--15-15-15-15-17-17-17-17----------------------------------------------------|
G|-----------------------------------------------------------------------------------------------------|
D|-----------------------------------------------------------------------------------------------------|
A|-----------------------------------------------------------------------------------------------------|
E|-----------------------------------------------------------------------------------------------------|

e|-----17p14-|
B|-17b-------| (x27)
G|-----------|
D|-----------|
A|-----------|
E|-----------|

e|--17b-17b~--17b-17b~---21b-21b~--21b-21b~------19b-19b-19b-19b-21b-21b-21b-21b-17b-17b----------------|
B|------------------------------------------------------------------------------------------------------|
G|------------------------------------------------------------------------------------------------------|
D|------------------------------------------------------------------------------------------------------|
A|------------------------------------------------------------------------------------------------------|
E|------------------------------------------------------------------------------------------------------|

e|-17-15-14-17-15-14-17-15-14-17-15-14-------------------------|
B|-------------------------------------------17-------17-------|
G|-------------------------------------17-19----17-19----17-19-|
D|-------------------------------------------------------------|
A|-------------------------------------------------------------|
E|-------------------------------------------------------------|

e|-----------------------------------------------------------------|
B|17--17-15-14-17-15-14-17-15-14-------14-------14-------14--------|
G|19--------------------------------15-17----15-17----15-17--------|
D|-----------------------------------------------------------------|
A|-----------------------------------------------------------------|
E|-----------------------------------------------------------------|

e|-----------------------------------|
B|-15p14h15p14h15p14h15p14h15b-------|
G|-----------------------------------|
D|-----------------------------------|
A|-----------------------------------|
E|---------------------------------7-|


************************************

| h   Hammer-on
| p   Pull-off
| br  Bend release
| /   Slide up
| x   Dead note
| b   Bend
| \   Slide down
| ~   Vibrato

************************************
Suggest correction
comments
print report bad tab
2 comments total.
0 reply
gakkung85 20 Jan 30, 2010 08:36 PM

Ayos pare.. :))

0 reply
edumico1234 10 Aug 06, 2011 02:16 AM

the intro should be like this
INTRO:

e]-2------------[
B]---3-2--------[
G]-------4------[
D]--------------[
A]--------------[
E]--------------[

guest
You may want to rate the tab now too:
select rating
Wanna post a correction for this tab? Suggest correction