Oops, an error
Loading. Please wait.

Chao Lola Tab

version 1
version 1

Whole song

91 views 3 this week
no commentswrite comment
1 2 3 4 5
3 more votes to show rating
add to favorites
launch autoscroll
font size
0
reset
how to read this tab
guitar tuner
Autoscroll
slow
fast
+/-
esc
set tempo
stop
Help us to improve Ultimate-Guitar.com Take our survey!
×
Esta cancion es origimalmente en piano, pero con la guitarra
se puede lograr algo que suena bien.
INTRO
 1ª Guitarra
  D#m        Fm#7         D#m         G#7
e-------4--|------------|---------2-|--------------|
B-5-4-3----|--------2-4-|-4/5/4-2---|-2-2-1----2-4-|
G----------|------------|-----------|--------------|
D----------|------------|-----------|--------------|
A----------|------------|-----------|--------------|
E----------|------------|-----------|--------------|

  D#m           Fm#7         D#m         G#7
e---------4---|------------|---------2-|-----------|
B-4/5/4-2-----|--------2-4-|-4/5/4-2---|-1---------|
G-------------|------------|-----------|-----------|
D-------------|------------|-----------|-----------|
A-------------|------------|-----------|-----------|
E-------------|------------|-----------|-----------|
 2ª Guitarra
  D#m         Fm#7      D#m         G#7
e-4-----4---|-----3---|-4-----4---|-----4---|
B---5-----5-|---3---3-|---5-----5-|---4---4-|
G-----6-----|-3-------|-----6-----|-5-------|
D-----------|---------|-----------|---------|
A-----------|---------|-----------|---------|
E-----------|---------|-----------|---------|

 D#m         Fm#7      D#m         G#7
e-4-----4---|-----3---|-4-----4---|---------|
B---5-----5-|---3---3-|---5-----5-|---------|
G-----6-----|-3-------|-----6-----|-5-------|
D-----------|---------|-----------|---------|
A-----------|---------|-----------|---------|
E-----------|---------|-----------|---------|

SOLO
 1ª Guitarra
  D#m        Fm#7         D#m         G#7
e-------4--|------------|---------2-|--------------|
B-5-4-3----|--------2-4-|-4/5/4-2---|-2-2-1----2-4-|
G----------|------------|-----------|--------------|
D----------|------------|-----------|--------------|
A----------|------------|-----------|--------------|
E----------|------------|-----------|--------------|

 D#m           Fm#7         D#m         G#7
e---------4---|------------|---------2-|------------|
B-4/5/4-2-----|--------2-4-|-4/5/4-2---|-1-2--1h2-2-|
G-------------|------------|-----------|------------|
D-------------|------------|-----------|------------|
A-------------|------------|-----------|------------|
E-------------|------------|-----------|------------|

 2ª Guitarra
  D#m         Fm#7      D#m         G#7
e-4-----4---|-----3---|-4-----4---|-----4---|
B---5-----5-|---3---3-|---5-----5-|---4---4-|
G-----6-----|-3-------|-----6-----|-5-------|
D-----------|---------|-----------|---------|
A-----------|---------|-----------|---------|
E-----------|---------|-----------|---------|

 D#m         Fm#7      D#m         G#7
e-4-----4---|-----3---|-4-----4---|-4-------|
B---5-----5-|---3---3-|---5-----5-|-4-------|
G-----6-----|-3-------|-----6-----|-5-------|
D-----------|---------|-----------|-4-------|
A-----------|---------|-----------|-6-------|
E-----------|---------|-----------|-4-------|

Esta es toda la parte donde hay punteillos significativos, los demás
se pueden sacar con arpegios de las notas base.
Esta canción es bastante triste y va dedicada un mujer muy especial a la cual
quiero mucho y que sé le gusta mucho. Aunque no me lo crea aprecio mucho
el poder estar y contar con ella, en estos dias tan dificiles. Sabes que contas
conmigo por siempre.
Suggest correction
Give kudos to tab author, rate the tab!
1 2 3 4 5
comments
print report bad tab
guest
You may want to rate the tab now too:
select rating
Wanna post a correction for this tab? Suggest correction