Oops, an error
Loading. Please wait.

Chao Lola Tab

version 2
version 2

Whole song

117 views 1 this week
no commentswrite comment
1 2 3 4 5
3 more votes to show rating
add to favorites
launch autoscroll
font size
0
reset
how to read this tab
guitar tuner
×
Best way to learn
"Chao Lola"
Autoscroll
slow
fast
+/-
esc
set tempo
stop
Intro:
     C#m       B       A    G#
E||-----4--------------2--------|
B||-5---5-5--4-2-4-2---2-2---5--|
G||--6----5--4-----2-2---2-5-5--|
D||---6-------------2------6--6-|
A||-4--------2-----0-------6-6--|
E||-----------------------------|
   C#m      B       A    G#
E||-----4--------------2-----|
B||-5---5-5--4-2-4-2---2-2---|
G||--6----5--4-----2-2---2-5-|
D||---6-------------2------6-|
A||-4--------2-----0-------6-|
E||--------------------------|

1era estrofa
    C#m     B       A    G#
|----------------------------------|
|--5--5---4--4---2-----------4-----|
|--6--6---4--4---2---2---5---5-----|
|---6--6---4--2---2---2--6-----6---|
|--4--4---2--4---0---0---6-6-6-----|
|----------------------------------|
Y hoy que estoy tan despiadadamente solo

C#m     B       A    G#
|----------------------------------|
|--5--5---4--4---2-----------4-----|
|--6--6---4--4---2---2---5---5-----|
|---6--6---4--2---2---2--6-----6---|
|--4--4---2--4---0---0---6-6-6-----|
|----------------------------------|
hoy que juegas juegos para ver si me amas

  E       B         C#m
|--------------------------|
|--0--0--4---4----5---5----|
|--1--1--4---4----6---6----|
|---2--2---4---4----6---6--|
|--2--2--2---2----4---4----|
|--------------------------|
hoy que tus proyectos ya no van con migo


        B        A
|--------------------------|
|------4---4---2---2-------|
|------4---4---2---2-------|
|--------4---4---2--2------|
|------2---2---0---0-------|
|--------------------------|
ni te sientes tan segura de mi amor


    E      F#m     G#
|--------------------------|
|-0--0---2--2-------4------|
|-1--1---2--2---5---5------|
|--2--2---4--4--6----6-----|
|-2--2---4--4---6-6-6------|
|--------------------------|
linda hoy te pido que me des respiro

    C#m     B       A    G#
|----------------------------------|
|--5--5---4--4---2-----------4-----|
|--6--6---4--4---2---2---5---5-----|
|---6--6---4--2---2---2--6-----6---|
|--4--4---2--4---0---0---6-6-6-----|
|----------------------------------|
Voy a detener esta carrera absurda

C#m     B       A    G#
|----------------------------------|
|--5--5---4--4---2-----------4-----|
|--6--6---4--4---2---2---5---5-----|
|---6--6---4--2---2---2--6-----6---|
|--4--4---2--4---0---0---6-6-6-----|
|----------------------------------|
El amor no es algo que se busca en otro

  E       B         C#m
|--------------------------|
|--0--0--4---4----5---5----|
|--1--1--4---4----6---6----|
|---2--2---4---4----6---6--|
|--2--2--2---2----4---4----|
|--------------------------|
Déjame soñarte entre tus enfines

        B        A
|--------------------------|
|------4---4---2---2-------|
|------4---4---2---2-------|
|--------4---4---2--2------|
|------2---2---0---0-------|
|--------------------------|
déjame sentir que todavía estás


    E                    F#m                    G#      E
|-------|            |--------|            |-------|--------|
|-0--0--|            |-2--2---|            |----4--|-0--0---|
|-1--1--|            |-2--2---|            |5---5--|-1--1---|
|--2--2-|            |--4--4--|            |6----6-|--2-2---|
|-2--2--|            |-4--4---|            |6-6-6--|-2--2---|
|-------|            |--------|            |-------|--------|
No te me aparezcas para ver que no eres, la mujer que tanto tanto yo amé


       B         C#m
|------------------------|
|------4---4----5---5----|
|------4---4----6---6----|
|--------4---4----6---6--|
|------2---2----4---4----|
|------------------------|

Ni siquiera llames no digas mi nombre

        B        A
|--------------------------|
|------4---4---2---2-------|
|------4---4---2---2-------|
|--------4---4---2--2------|
|------2---2---0---0-------|
|--------------------------|
quiero recordarte estando junto a mi

    E                    F#m                         G#
|-------|            |--------|                   |-------|
|-0--0--|            |-2--2---|                   |----4--|
|-1--1--|            |-2--2---|                   |5---5--|
|--2--2-|            |--4--4--|                   |6----6-|
|-2--2--|            |-4--4---|                   |6-6-6--|
|-------|            |--------|                   |-------|
Quiero despertar pensando que estas cerca, Quiero despertar sin despertar

Intermedio:
C#m       B       A    G#
E||-----4--------------2--------|
B||-5---5-5--4-2-4-2---2-2---5--|
G||--6----5--4-----2-2---2-5-5--|
D||---6-------------2------6--6-|
A||-4--------2-----0-------6-6--|
E||-----------------------------|
   C#m      B       A    G#
E||-----4--------------2-----|
B||-5---5-5--4-2-4-2---2-2---|
G||--6----5--4-----2-2---2-5-|
D||---6-------------2------6-|
A||-4--------2-----0-------6-|
E||--------------------------|


    C#m     B       A    G#
|----------------------------------|
|--5--5---4--4---2-----------4-----|
|--6--6---4--4---2---2---5---5-----|
|---6--6---4--2---2---2--6-----6---|
|--4--4---2--4---0---0---6-6-6-----|
|----------------------------------|
Y los girasoles que sembré en tu vida


C#m     B       A    G#
|----------------------------------|
|--5--5---4--4---2-----------4-----|
|--6--6---4--4---2---2---5---5-----|
|---6--6---4--2---2---2--6-----6---|
|--4--4---2--4---0---0---6-6-6-----|
|----------------------------------|
Te parece hoy que no eran tan bonitos

  E       B         C#m
|--------------------------|
|--0--0--4---4----5---5----|
|--1--1--4---4----6---6----|
|---2--2---4---4----6---6--|
|--2--2--2---2----4---4----|
|--------------------------|
Las conversaciones y el espagueti


        B        A
|--------------------------|
|------4---4---2---2-------|
|------4---4---2---2-------|
|--------4---4---2--2------|
|------2---2---0---0-------|
|--------------------------|
Todo lo que fuimos nada vale ya

    E      F#m     G#
|--------------------------|
|-0--0---2--2-------4------|
|-1--1---2--2---5---5------|
|--2--2---4--4--6----6-----|
|-2--2---4--4---6-6-6------|
|--------------------------|
Los hijos que nunca ya vendrán contigo

    C#m     B       A    G#
|----------------------------------|
|--5--5---4--4---2-----------4-----|
|--6--6---4--4---2---2---5---5-----|
|---6--6---4--2---2---2--6-----6---|
|--4--4---2--4---0---0---6-6-6-----|
|----------------------------------|
Deja de alargar esta muerte tan lenta


C#m     B       A    G#
|----------------------------------|
|--5--5---4--4---2-----------4-----|
|--6--6---4--4---2---2---5---5-----|
|---6--6---4--2---2---2--6-----6---|
|--4--4---2--4---0---0---6-6-6-----|
|----------------------------------|
Deja de decir que ya no sientes nada,       ya lo se

    E       B         C#m
|--------------------------|
|--0--0--4---4----5---5----|
|--1--1--4---4----6---6----|
|---2--2---4---4----6---6--|
|--2--2--2---2----4---4----|
|--------------------------|
Déjame soñarte entre tus enfines

        B        A
|--------------------------|
|------4---4---2---2-------|
|------4---4---2---2-------|
|--------4---4---2--2------|
|------2---2---0---0-------|
|--------------------------|
déjame sentir que todavía estás


    E                    F#m                    G#      E
|-------|            |--------|            |-------|--------|
|-0--0--|            |-2--2---|            |----4--|-0--0---|
|-1--1--|            |-2--2---|            |5---5--|-1--1---|
|--2--2-|            |--4--4--|            |6----6-|--2-2---|
|-2--2--|            |-4--4---|            |6-6-6--|-2--2---|
|-------|            |--------|            |-------|--------|
No te me aparezcas para ver que no eres, la mujer que tanto tanto yo amé


       B         C#m
|------------------------|
|------4---4----5---5----|
|------4---4----6---6----|
|--------4---4----6---6--|
|------2---2----4---4----|
|------------------------|

Ni siquiera llames no digas mi nombre

        B        A
|--------------------------|
|------4---4---2---2-------|
|------4---4---2---2-------|
|--------4---4---2--2------|
|------2---2---0---0-------|
|--------------------------|
quiero recordarte estando junto a mi

    E                    F#m                         G#
|-------|            |--------|                   |-------|
|-0--0--|            |-2--2---|                   |----4--|
|-1--1--|            |-2--2---|                   |5---5--|
|--2--2-|            |--4--4--|                   |6----6-|
|-2--2--|            |-4--4---|                   |6-6-6--|
|-------|            |--------|                   |-------|
Quiero despertar pensando que estas cerca, Quiero despertar sin despertar

Intermedio:
C#m       B       A    G#
E||-----4--------------2--------|
B||-5---5-5--4-2-4-2---2-2---5--|
G||--6----5--4-----2-2---2-5-5--|
D||---6-------------2------6--6-|
A||-4--------2-----0-------6-6--|
E||-----------------------------|
   C#m      B       A    G#
E||-----4--------------2-----|
B||-5---5-5--4-2-4-2---2-2---|
G||--6----5--4-----2-2---2-5-|
D||---6-------------2------6-|
A||-4--------2-----0-------6-|
E||--------------------------|
Suggest correction
Give kudos to tab author, rate the tab!
1 2 3 4 5
comments
print report bad tab
guest
You may want to rate the tab now too:
select rating
Wanna post a correction for this tab? Suggest correction