Oops, an error
Loading. Please wait.

Dejame Tab

version 1
version 1

Whole song

274 views 3 this week
no commentswrite comment
1 2 3 4 5
3 more votes to show rating
add to favorites
launch autoscroll
font size
0
reset
how to read this tab
guitar tuner
×
Best way to learn
"Dejame"
Autoscroll
slow
fast
+/-
esc
set tempo
stop
Bueno, corrijo de nuevo mi trascripción pasada, esta suena estupendo, exacta
a la versión original. Un saludo a todos desde Colombia.

Alguna duda o comentario a mi correo en Marinilla - Antioquia.

Guitarra 1

  D           Em         D            Am
e-2h3h2-0-----0-----5----2h3h2-0-----------------
b----------3------0-5-------------3----------1---
g---------------0-------------------------2--2---
d---------------------------------------2--------
a-------------------------------------0-----------
e-------------0-----------------------------------

  D          D7     D9              G       
e-2h3h2-0-----------5----2h3h2-0----------3------   
b---------3------1--3-------------3-------3------
g--------------2------------------------0-------- 
d------------0------------------------0----------
a------------------------------------------------ 
e-----------------------------------3------------

  D           Em         D            Am
e-2h3h2-0-----0-----5----2h3h2-0---------------5--
b----------3------0-3-------------3---------1--3--
g---------------0-------------------------2-------
d-------------------------------------------------
a-------------------------------------0-----------
e-------------0-----------------------------------

  D          D7     D9              G          B7
e-2h3h2-0-----------5----2h3h2-0----------3------------2-
b---------3------1--3-------------3-------3----------0---
g--------------2------------------------0----------2-----
d------------0------------------------0----------1-------
a----------------------------------------------2---------
e-----------------------------------3--------------------


Guitarra 2

    Em                       Am
E------------------------------------------------------
B---------0------------0-----------1------------1------
G-------0---0--------0---0-------2---2--------2---2----
D-----2-------2----2------2----2-------2----2-------2--
A----------------------------0------------0------------
E---0-----------0--------------------------------------

    Am                        G                           B7
E-----------------------------------------------------    ---------2--
B--------1------------1-------------3------------3----    -------0----
G------2---2--------2---2---------0---0--------0---0--    -----2------
D----0-------0----0-------0-----0-------0----0-------0 x2 ---1--------
A--0------------0-------------------------------------    -2----------
E----------------------------3-------------3----------    ------------


Em               Am               
Déjame, déjame decir adiós.
D/F#      D          G        
ayúdame, ayúdame a borrar tu voz.
  Em                   Am
enséñame, enséñame a seguir sin ti.
  D/F#    D               G             B7
intentare librar mi pecho de este amor.

(Sigue el mismo circulo)

Háblame, y cuéntame que vas a hacer.
con el dolor de esto que no pudo ser.
olvídame, y empieza a caminar sin mi.
este amor se nos ha escapado ya.

CORO (el mismo arpegio de la segunda guitarra pero el doble de rapidez):

No, tus caricias no saben a miel
tus olores no me hacen soñar como ayer
ya, mis palabras no te dan calor
tus manos ya no tiemblan cuando estas cerca de mi.


Déjame, déjame pedir perdón.
talvez no di, todo lo que pude dar.
por este amor, que nos ha hecho tanto bien.
y me perdí, buscándote en mi corazón.

(Vuelve la intro del principio y termina)
Suggest correction
Give kudos to tab author, rate the tab!
1 2 3 4 5
comments
print report bad tab
guest
You may want to rate the tab now too:
select rating
Wanna post a correction for this tab? Suggest correction