Oops, an error
Loading. Please wait.

Dejame Tab

version 2
version 2

Whole song

99 views 1 this week
no commentswrite comment
1 2 3 4 5
3 more votes to show rating
add to favorites
×
Save as Personal and add changes to this tab that will be seen only by you. Learn more ›
×
You can save this tab as Personal to edit and correct it or add notes. All changes will be seen only by you. Learn more »
save as personal
new!
launch autoscroll
font size
0
reset
how to read this tab
guitar tuner
Autoscroll
slow
fast
+/-
esc
set tempo
stop
Hola amigos, en esta mi tercera trascripción
Les mando el intro y el final de esta hermosa canción
Que nos llega al alma,
Ahí va.


Intro
                Em                                Am
e-2h3p0-0-0---|-------5-----------|-2h3p0-0-0---|-------5-----------|
B-----------3-|-----0-3-0-------0-|-----------3-|-----1-3-1-------1-|
G-------------|---0-------0---0---|-------------|---2-------2---2---|
D-------------|-------------------|-------------|-------------------|
A-------------|-------------------|-------------|-0-----------0-----|
E-------------|-0-----------0-----|-------------|-------------------|

                D7                                G
e-2h3p0-0-0---|-------5-----------|-2h3p0-0-0---|-------5-----------|
B-----------3-|-----1-3-1-------1-|-----------3-|-----0-3-0-------0-|
G-------------|---2-------2---2---|-------------|---0-------0---0---|
D-------------|-0-----------0-----|-------------|-------------------|
A-------------|-------------------|-------------|-------------------|
E-------------|-------------------|-------------|-3-----------3-----|


                Em                                Am
e-2h3p0-0-0---|-------5-----------|-2h3p0-0-0---|-------5-----------|
B-----------3-|-----0-3-0-------0-|-----------3-|-----1-3-1-------1-|
G-------------|---0-------0---0---|-------------|---2-------2---2---|
D-------------|-------------------|-------------|-------------------|
A-------------|-------------------|-------------|-0-----------0-----|
E-------------|-0-----------0-----|-------------|-------------------|

                D7                                G
e-2h3p0-0-0---|-------5-----------|-2h3p0-0-0---|-------5-----------|
B-----------3-|-----1-3-1-------1-|-----------3-|-----0-3-0-------0-|
G-------------|---2-------2---2---|-------------|---0-------0---0---|
D-------------|-0-----------0-----|-------------|-------------------|
A-------------|-------------------|-------------|-------------------|
E-------------|-------------------|-------------|-3-----------3-----|

  B7
e------2-----|
B----0---0---|
G--2-------2-|
D------------|
A-2----------|
E------------|
Final.

                Em                                Am
e-2h3p0-0-0---|-------5-----------|-2h3p0-0-0---|-------5-----------|
B-----------3-|-----0-3-0-------0-|-----------3-|-----1-3-1-------1-|
G-------------|---0-------0---0---|-------------|---2-------2---2---|
D-------------|-------------------|-------------|-------------------|
A-------------|-------------------|-------------|-0-----------0-----|
E-------------|-0-----------0-----|-------------|-------------------|

                D7                                G
e-2h3p0-0-0---|-------5-----------|-2h3p0-0-0---|-------5-----------|
B-----------3-|-----1-3-1-------1-|-----------3-|-----0-3-0-------0-|
G-------------|---2-------2---2---|-------------|---0-------0---0---|
D-------------|-0-----------0-----|-------------|-------------------|
A-------------|-------------------|-------------|-------------------|
E-------------|-------------------|-------------|-3-----------3-----|

   Em
e|-0-|
B|-0-|
G|-0-|
D|-2-|
A|-2-|
E|-0-|

No mando los acordes ni la letra porque ya estan en las
anteriores trascripciones

Espero que les guste, y que viva yo,
Y todos los que me rodean, saludos a mí banda en
Especial a mi amiga Evelin Que son los mejores de florida.
Suggest correction
Give kudos to tab author, rate the tab!
1 2 3 4 5
comments
print report bad tab
guest
Wanna post a correction for this tab? Suggest correction