Oops, an error
Loading. Please wait.

Dejame Tab

version 3
version 3

Whole song

148 views 1 this week
no commentswrite comment
1 2 3 4 5
3 more votes to show rating
add to favorites
launch autoscroll
font size
0
reset
how to read this tab
guitar tuner
×
Best way to learn
"Dejame"
Autoscroll
slow
fast
+/-
esc
set tempo
stop
Debo aclarar que esta transcripción está hecha....
para una guitarra pero la versión original es para dos guitarras
pero claro que no está perfecto.....
pero se parece mucho a la versión original....espero les agrade.....

intro:

            Em                               Am
e-2h3p2-0---0-------5--------------2h3p2-0---0------5----------------
B---------3-0--0----5--0-------0----------3--1---1--3--1-------1-----
G----------------0------0----0-----------------2---------2---2-------
D--------------------------------------------------------------------
A--------------------------------------------0-------------0---------
E-----------0--------------0-----------------------------------------

            D/F#                     D/F#            D/F#
e-2h3p2-0---0------5-----------2h3p2-0-0----0--------0---------------
B---------3-3---3--5--3-------3--------3--3---3---3--3---------------
G-----------2-2-------2---2------------2-2------2----2---------------
D----------------------------------------------------0---------------
A----------------------------------------------------0---------------
E-----------2-----------2--------------2-------------2-----------(BIS)

El intro se repite 2 veces.

Hay que tocar en punteo exceptuando la primera parte de cada segmento...

Em                Am
dejame, dejame decir adios
  D/F#                     D/G
ayudame, ayudame a borrar tu voz
Em                      Am
enseñame, enseñame a seguir sin ti
  D/F#                              D/G
intentare, librar mi pecho de este amor
Em                        Am
hablame, y cuentame que vas a hacer
  D/F#                         D/G
con el dolor, de esto que no pudo ser
Em                        Am
olvidame, y empieza a caminar sin mi
    D/F#                    D/G
que este amor, se nos a escapado ya


coro:
Em                     Am                    D/F#
no, tus caricias no saben a miel
                   D/G        G     B7
tus olores no me hacen soñar como ayer
Em                     Am                    D/F#
ya, mis palabras no te dan calor
                          D/G          G      B7
tus manos ya no tiemblan cuando estas cerca de mi.

Em                Am
dejame, dejame pedir perdon
   D/F#                    D/G
talvez no di, todo lo que pude dar
Em                              Am
por este amor, que nos ha hecho tanto bien
   D/F#                      D/G
y me perdi, buscandote en mi corazon


coro:
ya, tus caricias no saben a miel
tus olores no me hacen soñar como ayer
ya mis palabras no te dan calor
tus manos ya no tiemblan cuando estas cerca de mi.

por ultimo se repite el primer coro. y el intro.

      e B G D A E
D/F#: 0 3 2 0 0 2
D/G:  2 3 0 0 0 3

Esto es todo, cualquier correcion o comentario escribanme.
(loja-Ecuador)
Suggest correction
Give kudos to tab author, rate the tab!
1 2 3 4 5
comments
print report bad tab
guest
You may want to rate the tab now too:
select rating
Wanna post a correction for this tab? Suggest correction