Oops, an error
Loading. Please wait.

Dicen Tab

279 views 1 this week
no commentswrite comment
1 2 3 4 5
3 more votes to show rating
add to favorites
launch autoscroll
font size
0
reset
how to read this tab
guitar tuner
×
Best way to learn
"Dicen"
Autoscroll
slow
fast
+/-
esc
set tempo
stop
INTRO:

e|-------------------6-8-9-8-6--------------|
B|-5h6-6--7-6h7p6-5-6-----------7-7^6-6h7-7-|
G|------------------------------------------|
D|------------------------------------------|
A|------------------------------------------|
E|------------------------------------------|

e|--------------------------6-8-9-8-9-10/12-12-10--|
B|-5-6-6--6-6h7p6-5-6------------------------------|
G|-------------------------------------------------|
D|-------------------------------------------------|
A|-------------------------------------------------|
E|-------------------------------------------------|


e|-7h8-7--5-4-5--------------------------------|
B|---------------------------------------------|
G|---------------------------------------------|
D|---------------------------------------------|
A|---------------------------------------------|
E|---------------------------------------------|


h=Hammer on
p=Pull of
/=Slide down
^=Bend up


ESPERO QUE LA DISFRUTEN, ES MI PRIMER TAB.
Esto va dedicado a ALVARO RAMIREZ Y ALEJANDRO VILLEGAS DEL YERMO Y PARRES
PA'QUE VEAN QUE SI SE PUEDE

DE:JOHANN ALVAREZ
Suggest correction
Give kudos to tab author, rate the tab!
1 2 3 4 5
comments
print report bad tab
guest
You may want to rate the tab now too:
select rating
Wanna post a correction for this tab? Suggest correction