Oops, an error
Loading. Please wait.

El Aguacate Tab

64 views 1 this week
no commentswrite comment
1 2 3 4 5
3 more votes to show rating
add to favorites
launch autoscroll
font size
0
reset
how to read this tab
guitar tuner
×
Best way to learn
"El Aguacate"
Autoscroll
slow
fast
+/-
esc
set tempo
stop
Bueno, esta canción la saque gracias a un amigo que le gustaba
 una nena  pero ella no le paraba bolas, la canción no esta
perfecta pero suena muy parecido espero que les guste. Ah y
gracias a la anterior transcripción que me ayudo como base,
y disculpen si no son esas notas, pero no se mucho de gramática,
y las notas son una base para que sepan donde van los
cambios. Gracias...!

EL AGUACATE

 Dm       A                           Dm
-0----------------------------0------------1-----
-3--------------0h2-------------2--------3---3---
-2------------2-----2-------2-----2----2-------2-
-0----------2---------2---2----------0-----------
-0--------0-------------0------------------------
-------------------------------------------------


 Dm    D/C   A
----------------------------------0------
-----3-----3-------0h2--------------2----
---2-----2-------2-----2-------2------2--
-0-------------2---------2---2-----------
-------3-----0-------------0-------------
-----------------------------------------


 Dm                          A
-------1-------1---0----------------------------0-----
-----3---3-----3---2--------------0h2-------------2---
---2-------2---2---2------------2-----2-------2-----2-
-0-------------0---0----------2---------2---2---------
-------------------0--------0-------------0-----------
------------------------------------------------------


 Dm                D/C   A
-------1-------------------------------------0-----
-----3---3-------3-----3-------0h2-------------2---
---2-------2---2-----2-------2-----2-------2-----2-
-0-----------0-------------2---------2---2---------
-------------------3-----0-------------0-----------
---------------------------------------------------


 Dm           D7     D9    |Gm|
-------1------2------5------3-----3-------
-----3---3------1------4------3-----3-----
---2-------2------2------2------3-----3---
-0-----0------0------0--------------------
------------------------------------------
----------------------------3-------------


 C            F            Bb           Gm
-0-----0------1-----1------1-----1------3-----3-----
---1-----1------1-----1------2-----2------3-----3---
-----0-----0------2-----2------2-----2------3-----3-
----------------------------------------------------
-3-------------------------1------------------------
--------------1-------------------------3-----------


 A            Dm     D7     D9          se repite
-0-----0------1------2------5---------- desde este
---2-----2------3------1------4-------- Sol |Gm|
-----2-----2------2------2------2-------------
--------------0------0------0-----------------
-0--------------------------------------------
----------------------------------------------

 Dm        A               Dm           D/C
Tú eres? mi amor, mi dicha y mi tesoro
       A             Dm
Mí solo en canto y mi ilusión

 Dm        A               Dm           D/C
Tú eres? mi amor, mi dicha y mi tesoro
       A             Dm  D7  D9
Mí solo en canto y mi ilusión

    Gm
Ven a calmar mis males
C        F
Mujer no seas tan inconstante
Dm         Gm                  A
No olvides al que sufre y llora
A7       Dm  D7  D9
por tu pasión

Ven a calmar mis males
Mujer no seas tan inconstante
No olvides al que sufre y llora por tu pasión

Bb Gm           A      A7
Yo te daré mi amor mi fe
Bb    Gm            A     A7
Todas mis ilusiones, tuyas son
   Gm      A             Dm
Pero tú no olvidaras al infeliz
       D/C      Gm
Que te adoro al pobre ser
      C           F
Que un día fu tú encanto
          A     A7       Dm
Tu mayor anhelo y tu ilusión

SOLO (Piano)

Ven a calmar mis males
Mujer no seas tan inconstante
No olvides al que sufre y llora por tu pasión

Yo te daré mi amor mi fe
Todas mis ilusiones, tuyas son
Pero tú no olvidaras al infeliz
Que te adoro al pobre ser
Que un día fu tú encanto
Tu mayor anhelo tu ilusión

Ah y esta canción se la dedico a mi preciosa.
Alguna duda escriban a mi correo
Luis_e911@


.000_____000__000__000___00000.
.000_____000__000__000__000000.
.000_____000__000__000__000___.
.000_____000__000__000__00000_.
.000_____000__000__000___00000.
.000_____000__000__000_____000.
.000000__00000000__000__000000.
.000000___000000___000__00000_.
Suggest correction
Give kudos to tab author, rate the tab!
1 2 3 4 5
comments
print report bad tab
guest
You may want to rate the tab now too:
select rating
Wanna post a correction for this tab? Suggest correction