Oops, an error
Loading. Please wait.

Tarjetitas Bass

12 views 1 this week
no commentswrite comment
1 2 3 4 5
3 more votes to show rating
add to favorites
launch autoscroll
font size
0
reset
guitar tuner
Autoscroll
slow
fast
+/-
esc
set tempo
stop
Intro: solo guitarra y piano

Verso:

G |------------------|------------------|------------------------|
D |------------------|------------------|------------------------|
A |----5-----3-----5-|----3-----5-------|-5--3-----3--5--------5-|
E |-3-----0-----5----|-3-----5-----3--5-|-------3--------3--5----|

G |------------------|------------------|------------------------|
D |------------------|------------------|------------------------|
A |----5-----3-----5-|----3-----5-------|-5--3-----3--5--------5-|
E |-3-----0-----5----|-3-----5-----3--5-|-------3--------3--5----|

Coro:

G |----------|----------|----------|----------|
D |----------|----------|----------|----------|
A |----------|-55555555-|----------|-33333333-|
E |-33333333-|----------|-11111111-|----------|

G |----------|----------|----------|----------|
D |----------|----------|----------|----------|
A |----------|-55555555-|----------|-33333333-|
E |-33333333-|----------|-11111111-|----------|

G |----------|----------|----------|----------|
D |----------|----------|----------|----------|
A |----------|-55555555-|----------|-33333333-|
E |-33333333-|----------|-11111111-|----------|
                                    Aquí arrastras para ir al solo      
G |----------|----------|----------|-------------|
D |----------|----------|----------|-------------|
A |----------|-55555555-|----------|-33333333/10-|
E |-33333333-|----------|-11111111-|-------------|

Solo de Guitarra: deja sonar el slide de arriba

Verso 2:

G |----------|----------|----------|----------|
D |----------|----------|----------|----------|
A |----------|----------|----------|-55555555-|
E |-55555555-|-00000000-|-33333333-|----------|

G |----------|----------|----------|----------|
D |----------|----------|----------|----------|
A |----------|----------|----------|-55555555-|
E |-55555555-|-00000000-|-33333333-|----------|

Coro 2:

G |----------|----------|----------|----------|
D |----------|----------|----------|----------|
A |-22222222-|----------|----------|----------|
E |----------|-22222222-|-55555555-|-00000000-|


G |----------|----------|----------|----------|
D |----------|----------|----------|----------|
A |-22222222-|----------|----------|----------|
E |----------|-22222222-|-55555555-|-00000000-|

G |----------|----------|----------|----------|
D |----------|----------|----------|----------|
A |-22222222-|----------|----------|----------|
E |----------|-22222222-|-55555555-|-00000000-|

G |----------|----------|----------|----------|
D |----------|----------|----------|----------|
A |-22222222-|----------|----------|----------|
E |----------|-22222222-|-55555555-|-00000000-|

Outro:

G |----------|----------|----------|----------|
D |----------|----------|----------|----------|
A |-22222222-|----------|----------|----------|
E |----------|-22222222-|-55555555-|-00000000-|

Espero que lo cachen, sugerencias a juanjose@
Suggest correction
Give kudos to tab author, rate the tab!
1 2 3 4 5
comments
print report bad tab
guest
Wanna post a correction for this tab? Suggest correction