Oops, an error
Loading. Please wait.

Amor Eterno Bass

215 views 1 this week
no commentswrite comment
1 2 3 4 5
3 more votes to show rating
add to favorites
launch autoscroll
font size
0
reset
guitar tuner
×
Best way to learn
"Amor Eterno"
Autoscroll
slow
fast
+/-
esc
set tempo
stop
Esto se toga por toda la cancion

E--0--0-5-5---0--0-5-5------------------------
A-----------------------5--5-0-0---5--5-0-0---
D---------------------------------------------
G---------------------------------------------

Esto se toga en el coro

E--0--0-5-5---0--0-5-5------------------------
A-----------------------5--5-0-0---5--5-0-0---
D---------------------------------------------
G---------------------------------------------

E--0--0-0--0-2-3--3-3---5--5-5------------------------
A-------------------------------5--5-0-0---5--5-0-0---
D-----------------------------------------------------
G-----------------------------------------------------

E--0--0-5-5---0--0-5-5------------------------
A-----------------------5--5-0-0---5--5-0-0---
D---------------------------------------------
G---------------------------------------------

E--0--0-0--0-2-3--3-3---5--5-5------------------------
A-------------------------------5--5-0-0---5--5-0-0---
D-----------------------------------------------------
G-----------------------------------------------------

Y luego sigue lo mismo

E--0--0-5-5---0--0-5-5------------------------
A-----------------------5--5-0-0---5--5-0-0---
D---------------------------------------------
G---------------------------------------------
Suggest correction
Give kudos to tab author, rate the tab!
1 2 3 4 5
comments
print report bad tab
guest
You may want to rate the tab now too:
select rating
Wanna post a correction for this tab? Suggest correction