Oops, an error
Loading. Please wait.

Amor Eterno Tab

version 1
version 1

Whole song

510 views 3 this week
no commentswrite comment
1 2 3 4 5
3 more votes to show rating
add to favorites
launch autoscroll
font size
0
reset
how to read this tab
guitar tuner
×
Best way to learn
"Amor Eterno"
Autoscroll
slow
fast
+/-
esc
set tempo
stop
Esta parte es la del inicio y
se repite 2 veces

E]------------------------------------
A]------------------------------------
D]------------------------------------
G]------------------------------------
B]------------------------------------
e]2-5-3-5-3-5-3-5-3-5-3-5-3-5-7-5-3-2-

Despues de esa entra esta parte antes de
que empieza la letra.
E]---------------------------------------------
A]---------------------------------------------
D]---------------------------------------------
G]---------------------------------------------
B]---------------------------------------------
e]10-12-10-12-10-12-10-12-10-12-10-12-10-12-15-

E]---------------------------------------
A]---------------------------------------
D]---------------------------------------
G]---------------------------------------
B]-------------------3-------------------
e]12-10-9--2-5-3-2-0---0-2-3-3-2-3-5-7-7-

E]---------------------------------------
A]---------------------------------------
D]---------------------------------------
G]---------------------------------------
B]-2-2----3-3----------------------------
e]-----0---------------------------------

Desde alli empieza la letra, no la pongo ya que
las que hay estan bien, estas son las notas de la
cancion en Re Mayor, espero les guste.
Suggest correction
Give kudos to tab author, rate the tab!
1 2 3 4 5
comments
print report bad tab
guest
You may want to rate the tab now too:
select rating
Wanna post a correction for this tab? Suggest correction