Oops, an error
Loading. Please wait.

Amor Eterno Tab

version 2
version 2

Whole song

343 views 3 this week
no commentswrite comment
1 2 3 4 5
3 more votes to show rating
add to favorites
launch autoscroll
font size
0
reset
how to read this tab
guitar tuner
Autoscroll
slow
fast
+/-
esc
set tempo
stop
Help us to improve Ultimate-Guitar.com Take our survey!
×
 intro:  1 |-0-3-1-3-1-3-1-3-1-3-1-3-1-3-5-3-1-|
         2 |-0-3-1-3-1-3-1-3-1-3-1-3-1-3-5-3-1-| (x2)

juan gabriel
amor eterno


  1 |-----------------------|
  2 |-1-5-8-5-8-5-8-5-8-6---|
  3 |---------------------2-|
 tu eres la tristeza de mis ojos

  1 |---------------------|
  2 |---6-8-6-8-6-5--3-1--|
  3 |-2-------------------|
 que lloran el silencio por tu amor

  1 |-------------------------|
  2 |---1-1-1-1-1-1-5-1--1-3--|
  3 |-0-----------------------|
 me miro en el espejo y veo tu rostro

  1 |----------------------|
  2 |---3-5-3-5-3-5-3---1--|
  3 |-0---------------0----|
el tiempo que he sufrido por tu adios


  1 |-5-10-10-10-10-9-9-9-9-7-3-|
  2 |---------------------------|
  3 |---------------------------|
obligo a que te olvide el pensamiento

  1 |-3-9-7-7-5-9-7-7-5-9-7-|
  2 |-----------------------|
  3 |-----------------------|
pues siempre estoy pensando en el ayer

  1 |-3-1-5-3-5-3-5-3-5-8----|
  2 |----------------------2-|
  3 |------------------------|
de tanto que me duele que no estes


  1 |---3-5-3-5-3-5-3---1-|
  2 |-0---------------2---|
  3 |---------------------|
...como quiciera hay

  1 |-5-8---3-5--|
  2 |-----5------|
  3 |------------|
que tu estuvieras!


  1 |-5-8-6-5-3-1-3-5-6-6-5-6-8-10-10-8-10-8-10-8-8-|
  2 |-----------------------------------------------|
  3 |-----------------------------------------------|
que tus ojitos jamas se huvieran serrado nunca y estar mirandolos


  1 |-5-8-5-10-3-|
  2 |------------|
  3 |------------|
amor eterno

  1 |-8-10-8-10-8-8-|
  2 |---------------|
  3 |---------------|
eh inolvidable

  1 |-5-8-6-5-3-1-3-5-6-6-5-6-8-10-10-10------1-3-1-1-|
  2 |-------------------------------------------------|
  3 |-------------------------------------------------|
tarde o temprano estare contigo para seguir........amandonos!


 "luego se repiten la misma tablatura
   en la segunda estrofa"


yo he sufrido tant por tu ausencia
desde ese dia hasta hoy no soy feliz
aunque tengo traquila mi consiencia
se que pude haber hecho yo mas po ti

oscuridad soledad estoy viviendo
la misma soledad de tu sepulcro........
...


bueno espero que esta tablatura les haya sevido
gracias por verla att: max andres "samario"
Suggest correction
Give kudos to tab author, rate the tab!
1 2 3 4 5
comments
print report bad tab
guest
You may want to rate the tab now too:
select rating
Wanna post a correction for this tab? Suggest correction