Oops, an error
Loading. Please wait.

No Me Vuelvo A Enamorar Bass

109 views 1 this week
no commentswrite comment
1 2 3 4 5
3 more votes to show rating
add to favorites
launch autoscroll
font size
0
reset
guitar tuner
×
Best way to learn
"No Me Vuelvo A Enamorar"
Autoscroll
slow
fast
+/-
esc
set tempo
stop
Para todos mis compadres y comadres despechados y despechadas, alli
les va un bolero del Grande de America: Juan Gabriel, de quien digan
lo que digan, es uno de esos artistas en los que da
muchisisisisisisissimo placer verlo en persona.
Un grande. Gracias a los hermanos de Mexico por
regalarnos a muchos personajes ilustres:

Intro:

G --------------------------------------------------------------|
D ------------------------------------1-4---1-4-----------------|
A -------1-4-----1-4-----2-----2-1-2------2---------2-----------|
E -9/2-2-----2-2-----0-4---0-4------------------0-4---0---------|

Cancion/Interludio (3 veces)

G ------------------------|
D ------------------------|
A ---------2-------2-1-2--|
E -7/0-0-4---0-0-4--------|

G ------------|
D -1-4--------| (4 veces)
A -----2------|
E ------------|

G ------------|
D ------------| (4 veces)
A -----2------|
E -0-4---0----|

G -----------------------------------------------|
D -----2-----2---------1-4-----------2-----------|
A -0-4---0-4-------1-2---------2-0-4-------1-2---|
E -------------0-4---------0-4---------0-4-------|

G -----------------|
D -1-4-------------|
A ---------2-------|
E -----0-4---0-----|

Final (No me vuelvo a enamorar):

G ---------|
D ---------|
A -2-1-0---|
E ---------|

G ------------------------|
D -----------1-4----------|
A -----2-1-2---------2-7--|
E -0-4-----------0-4------|

Esta es una version basica, tiene sus detayes, pero esta completa
y tiene sonidos aproximados. La improvisacion es bienvenida, pues
le da toques personales a la cancion.
De verdad, para los que tengan parejas disfruten de ella, aprovechenla
y disfruten su amor, mientras duren juntos.
A los que rompieron o los que nno tienen (me incluyo)
piensenlo dos veces antes de enamorarse de alguien, pues nadie quiere
vivir una historia similar a la cancion.
Saludos desde Caracas, Venezuela. Dios me los bendiga.
Suggest correction
Give kudos to tab author, rate the tab!
1 2 3 4 5
comments
print report bad tab
guest
You may want to rate the tab now too:
select rating
Wanna post a correction for this tab? Suggest correction