Oops, an error
Loading. Please wait.

Querida Tab

208 views 15 this week
no commentswrite comment
1 2 3 4 5
3 more votes to show rating
add to favorites
launch autoscroll
font size
0
reset
how to read this tab
guitar tuner
Autoscroll
slow
fast
+/-
esc
set tempo
stop
Help us to improve Ultimate-Guitar.com Take our survey!
×
Author
Difficulty
novice
About this tab version
Puedes remplazar algunos slides por bends si lo prefieres. Was this info helpful? Yes No
[Solo 1]

e|------------------------------------------------------------------------17--17-19-----|
B|--------------------------------------------------15-17-15-17-15-17/19----------------|
G|-9/11---14--16--14-------------------------/16----------------------------------------|
D|--------------------16-14-12----------------------------------------------------------|
A|------------------------------12h14--12-----------------------------------------------|
E|--------------------------------------------------------------------------------------|

e|----------------17-19-17------------------------------------------------------------------------|
B|--19p17--15-15-----------19-17-17-15-------15-17-17b19r17-15------------------------------------|
G|-------------------------------------14-16--------------------------------7/--------------------|
D|--------------------------------------------------------------------------7/--------------------|
A|------------------------------------------------------------------------------------------------|
E|------------------------------------------------------------------------------------------------|


[Solo 2]

e|----14---------------------------------------------------------------------------------|
B|--------17--15-------------15-----15-17b19-b19-b19r17p15-------------------------------|
G|----------------16--14--16------16-----------------------------11--9---9--7------------|
D|------------------------------------------------------------------------------9--7-----|
A|---------------------------------------------------------------------------------------|
E|---------------------------------------------------------------------------------------|

e|--------------------------------------------------------------------------|
B|---------------------------------10---------------------------------------|
G|-------------7--9--7--9--7—9/11------11p9-7h9--7--------------------------|
D|------7--9----------------------------------------9-----7--9--7~~~~-------|
A|---9------------------------------------------------7h9-------------------|
E|--------------------------------------------------------------------------|


[Solo 3]

e|-------------------------------------------------|
B|-------------------------------------------------|
G|---------6--6/9--7~---9~---11~---12~--14~--------|
D|--4--7-------------------------------------------|
A|-------------------------------------------------|
E|-------------------------------------------------|
Suggest correction
Give kudos to tab author, rate the tab!
1 2 3 4 5
comments
print report bad tab
guest
You may want to rate the tab now too:
select rating
Wanna post a correction for this tab? Suggest correction