Oops, an error
Loading. Please wait.

Solo Se Que Fue En Marzo Tab

version 2
version 2

Whole song

76 views 1 this week
no commentswrite comment
1 2 3 4 5
3 more votes to show rating
add to favorites
launch autoscroll
font size
0
reset
how to read this tab
guitar tuner
×
Best way to learn
"Solo Se Que Fue En Marzo"
Autoscroll
slow
fast
+/-
esc
set tempo
stop
Intro:
Clave: Sol Mayor
Ritmo: Bolero
(Original en Do mayor)

         D                        G
-----------------------------------------e
-----------------------------------------a
-----------------------------------------d
-----------------------------------------g
-3-5-5-5-3--------3-5-7-5-7-10-10--8-----b
-----3-3-2--------2-3-5-3-5--8--8--7-----e


                D          G
-----------------------------------------e
-----------------------------------------a
-----------------------------------------d
---------------------2-4-5-4-------------g
-5-7-8-5-8-10--8-7-----------------------b
-3-5-7-3-7--8--7-5---2-3-5-3-------------e


            D              G
-----------------------------------------
-----------------------------------------
-----------------------------------------
---------------------2-4-5-7-------------
-10-8--10-8-7----------------------------
--8-7---8-7-5--------2-3-5-7-------------


         D                        G
-----------------------------------------e
-----------------------------------------a
-----------------------------------------d
-----------------------------------------g
-3-5-5-5-3--------3-5-7-5-7-10-10--8-----b
-----3-3-2--------2-3-5-3-5--8--8--7-----e


                D          G
-----------------------------------------e
-----------------------------------------a
-----------------------------------------d
---------------------2-2-4-5-------------g
-5-7-8-5-8-10--8-7-----------------------b
-3-5-7-3-7--8--7-5---2-2-3-5-------------e


Querer mirar...


Y los Violines de la parte del medio van asi:
                   D
-----------------------------------------e
-----------------------------------------a
-----------------------------------------d
-4-5-7-4-7-9-7-----5---------------------g
-----------------------------------------b
-3-5-7-3-7-8-7-----5---------------------e


             C     G
-----------------------------------------e
-----------------------------------------a
-----------------------------------------d
-2-4-5-2-5-7-9-7-5-7---------------------g
-----------------------------------------b
-2-3-5-2-5-7-8-7-5-7---------------------e

                   D                   G
-----------------------------------------e
-----------------------------------------a
-----------------------------------------d
-16-16-16-14-12-12-11-----5-7-9-7-9-11-7-g
-----------------------------------------b
-15-15-15-14-12-12-10-----5-7-8-7-8-10-7-e

                   D
-----------------------------------------e
-----------------------------------------a
-----------------------------------------d
-4-5-7-4-7-9-7-----5-----2-2-4-5---------g
-----------------------------------------b
-3-5-7-3-7-8-7-----5-----2-2-3-5---------e


Ella tiene otro amor...
Suggest correction
Give kudos to tab author, rate the tab!
1 2 3 4 5
comments
print report bad tab
guest
You may want to rate the tab now too:
select rating
Wanna post a correction for this tab? Suggest correction