Oops, an error
Loading. Please wait.

El Blues Del Perdido Bass Tab

8 views 1 this week
no commentswrite comment
1 2 3 4 5
3 more votes to show rating
add to favorites
launch autoscroll
font size
0
reset
guitar tuner
Autoscroll
slow
fast
+/-
esc
set tempo
stop
Help us to improve Ultimate-Guitar.com Take our survey!
×
ACOMPAÑAS TODA LA ROLA ASÍ HASTA EL CAMBIO

   
G--------------------------------------------
D--------------------------------------------
A--------------------------------------------  
E-7-7--9-9---7-7--9-9----7-7---9-9---7-7--9-9


------------------------------
------------------------------
--7-7--9-9---7-7--9-9---------
------------------------------


----------------------
----------------------
----------------------
---7-7-9-9----7-7--9-9


--------------------------------
--------------------------------
---9-9--11-11----9-9--11-11-----
--------------------------------

---------------------------------
---------------------------------
--7-7---9-9----7-7---9-9---------
---------------------------------


CAMBIO:
--------------------------------
--------------------------------
-7-7--9-9---7-7--9-9------------
--------------------------------

--------------------------------
--------------------------------
--------------------------------
-7-7--9-9---7-7---9-9-----------

---------------------------------
---------------------------------
-7-7--9-9---7-7--9-9-------------
---------------------------------

---------------------------------
---------------------------------
---------------------------------
--7-7--9-9----7-7-9-9------------

----------------------------------
----------------------------------
-7-7--9-9-----7-7--9-9------------
----------------------------------

----------------------------------
----------------------------------
----------------------------------
-7-7--9-9------7-7--9-9-----------

------------------------------------------------
------------------------------------------------
-9-9--11-11--9-9--11-11--9-9--11-11---9-9--11-11
------------------------------------------------


REPITES CASI TODO


nota: tonos:  E  A   E  A    B


quejas,etc:
Suggest correction
Give kudos to tab author, rate the tab!
1 2 3 4 5
comments
print report bad tab
guest
You may want to rate the tab now too:
select rating
Wanna post a correction for this tab? Suggest correction