Oops, an error
Loading. Please wait.

Estando Solo Tab

2 views 1 this week
no commentswrite comment
1 2 3 4 5
3 more votes to show rating
add to favorites
launch autoscroll
font size
0
reset
how to read this tab
guitar tuner
Autoscroll
slow
fast
+/-
esc
set tempo
stop
Help us to improve Ultimate-Guitar.com Take our survey!
×
INTRO:


E-1/-2-2-2-1/ 2-2-2--1/-2-2-2-1/-2-2-2--2--0-----------
B-1/-2-2-2-1/-2-2-2--1/-2-2-2-1/-2-2-2--------4--2-----
G------------------------------------------------------
D------------------------------------------------------
A------------------------------------------------------
E------------------------------------------------------

*RIFF  1

E---------------------------------------
B---------------------------------------
G---------------------------------------
D---------------------------------------
A----1--1-2--2-3--3-4-4---2--3--4-------
E--2------------------------------------

** RIFF 2

  F# B  A  F#
--2--------2-2-2-2-2--------------------
--4--2--0--4-4-4-4-4--------------------  
-----4--2-------------------------------
----------------------------------------
----------------------------------------

              **  TOCAS RIFF 2
ESTANDO SOLO
                     **  TOCAS RIFF  2
ME PUSE A RECORDAR    

AQUELLOS MOMENTOS    **  TOCAS RIFF  2

QUE NO PUEDO OLVIDAR

-----------------------------
-----------------------------
-----------------------------
-----------------------------
---1--1-2--2--3--3-----------
-2---------------------------

          C#5
ESTANDO  SOLO
          B5
ESTANDO SOLO
                F#5
NO QUIERO RECORDAR     * RIFF 1


                ** RIFF 2
ESTANDO TRISTE
                     ** RIFF 2
NO QUIERO OLVIDAR
                       
HORAS FELICES    ** RIFF 2

NUNCA ESCAPARAN   

-------------------
-------------------
-------------------
-------------------
---1--1-2--2-3--3--
-2-----------------
          C#5 
ESTANDO TRISTE
          B5
ESTANDO TRISTE
               F#5
NO QUIERO OLVIDAR     * RIFF 1

  B5
SIEMPRE UNA POCA DE ALEGRIA
        F#5    ** riff 2
LLEGA AMÍ
     B5 
EL BLUES QUIERO TENER NOCHE Y DÍA
        F#5            C#5
QUIERO TENER  QUIERO TENER


** RIFF 2

   NOTA CASI TODO REPITES SOLO ESCUCHA LA ROLA

   QUEJAS:
Suggest correction
Give kudos to tab author, rate the tab!
1 2 3 4 5
comments
print report bad tab
guest
You may want to rate the tab now too:
select rating
Wanna post a correction for this tab? Suggest correction