Oops, an error
Loading. Please wait.

Hice Un Viaje Para Descanzar Bass

19 views 1 this week
no commentswrite comment
1 2 3 4 5
3 more votes to show rating
add to favorites
launch autoscroll
font size
0
reset
guitar tuner
×
Best way to learn
"Hice Un Viaje Para Descanzar"
Autoscroll
slow
fast
+/-
esc
set tempo
stop
INTRO:   TOCAS TODO BAJEO EN LA ROLA ESTA EN TONO DE MI. 


G--------------------------------------------
D--------------------------------------------
A------0-1-------0-1-------0-1-------0-1----
E-0-3-------0-3--------0-3-------0-3---------


G--------------------------------------------
D------0-1-------0-1-------------------------
A-0-3-------0-3------------------------------
E--------------------------------------------


G--------------------------------------------
D--------------------------------------------
A-------0-1------0-1-------------------------
E-0-3--------0-3-----------------------------


G-------------------------
D-------------------------
A-2-2---0-0----2-2--0-0---
E-------------------------

LA LETRA:

HICE UN VIAJE PARA DESCANZAR
A ACAPULCO ME FUI A LARGAR
ME ENCONTRE QUE NO HABÍA CAMIONES
NO HABÍA DESCANZO
NI HABITACIONES OH NO

ANIMADO AL MAR YO ME LANCE
UN PESCADO MUERTO AHI EN CONTRÉ
MUCHA BASURA CONTAMINANDO
MIL DESPERDICIOS CONTRAMINANDO OH NO
Suggest correction
Give kudos to tab author, rate the tab!
1 2 3 4 5
comments
print report bad tab
guest
You may want to rate the tab now too:
select rating
Wanna post a correction for this tab? Suggest correction