Oops, an error
Loading. Please wait.

Poeta De Ningun Lugar Tab

92 views 1 this week
no commentswrite comment
1 2 3 4 5
3 more votes to show rating
add to favorites
launch autoscroll
font size
0
reset
how to read this tab
guitar tuner
×
Best way to learn
"Poeta De Ningun Lugar"
Autoscroll
slow
fast
+/-
esc
set tempo
stop
UNA ROLA DEL JUANITO HERNANDEZ , SABEN QUE BANDA VOTEN POR ESTA ROLA
ESTA CHIDA Y UN SALUDO PARA EL LALO, EL RUFFLES,EL DIABLO, EL MIEDOS
Y TODA LA BANDERA QUE ME CONOCE.

INTRO

E|----------------|--------------|-------------------------------
A|----------------|--------------|-------------------------------
D|----------------|--------------|-9h11-------11-----------------
G|--------------7-|-7-7-7--------|-----9-11-9--------------------
B|-10-10-10-9-7-7-|----5-5-7--7--|-------------------------------
e|-10-10--9-7-5---|---------5----|-------------------------------

E|----------------|--------------|-------------------------------
A|----------------|--------------|-------------------------------
D|----------------|--------------|-9h11-------11-----------------
G|--------------7-|-7-7-7--------|-----9-11-9--------------------
B|-10-10-10-9-7-7-|----5-5-7--7--|-------------------------------
e|-10-10--9-7-5---|---------5----|-------------------------------

E|----------------|--------------|--------------------------------
A|----------------------------------------------------------------
D|----------------------------------------------------------------
G|-7--------------------------------------------------------------
B|-7-7-7--7-12-10--7--14-12-12-10---------------------------------
e|---5-7--7-10--9--5--14-12-10-10---------------------------------

  D
  ERA UN EXTRAÑO MAS
    Bm
  EN EL CALLEJON
     D
  ALCOHOLICO SIN LUZ
       Bm
  POETA DE NINGUN LUGAR
         G        A             D
  DE MUSAS PERDIDAS EN EL MULADAR
   D
  ERA UN EXTRAÑO MAS
          Bm
  LEJOS DEL CORAZON DE DIOS
      D
  ESTUPIDO E INSOLENTE
     Bm
  PARASITO Y VULGAR
          G      A              D
  Y TU AMOR LLEGO COMO BENDICION
               Bm
  NO HUBO TIEMPO
         F#m
  PARA SABER QUIEN ERAS Y CONOCERTE
          G            A
  PERO TU PRESENCIA FUE
                        D
  IGUAL QUE UNA  CANCION
            Bm
  COMO UNA CANCION SOÑADA
         F#m
  EN EL FONDO DEL MAR
          Bm
  Y MI SOLEDAD AMARGA
         F#m
  SE QUEMO EN TU PIEL
           G        Gm
  AL TOCARTE Y AL SENTIRTE
          A   D
  NENA REVIVI.

E|----------------|--------------|-------------------------------
A|----------------|--------------|-------------------------------
D|----------------|--------------|-9h11-------11-----------------
G|--------------7-|-7-7-7--------|-----9-11-9--------------------
B|-10-10-10-9-7-7-|----5-5-7--7--|-------------------------------
e|-10-10--9-7-5---|---------5----|-------------------------------

E|----------------|--------------|-------------------------------
A|----------------|--------------|-------------------------------
D|----------------|--------------|-9h11-------11-----------------
G|--------------7-|-7-7-7--------|-----9-11-9--------------------
B|-10-10-10-9-7-7-|----5-5-7--7--|-------------------------------
e|-10-10--9-7-5---|---------5----|-------------------------------

E|----------------|--------------|--------------------------------
A|----------------------------------------------------------------
D|----------------------------------------------------------------
G|-7--------------------------------------------------------------
B|-7-7-7--7-12-10--7--14-12-12-10---------------------------------
e|---5-7--7-10--9--5--14-12-10-10---------------------------------

 D
  ERA UN EXTRAÑO MAS
    Bm
  EN EL CALLEJON
     D
  ALCOHOLICO SIN LUZ
       Bm
  POETA DE NINGUN LUGAR
         G        A             D
  DE MUSAS PERDIDAS EN EL MULADAR
   D
  ERA UN EXTRAÑO MAS
          Bm
  LEJOS DEL CORAZON DE DIOS
      D
  ESTUPIDO E INSOLENTE
     Bm
  PARASITO Y VULGAR
          G      A              D
  Y TU AMOR LLEGO COMO BENDICION
               Bm
  NO HUBO TIEMPO
         F#m
  PARA SABER QUIEN ERAS Y CONOCERTE
          G            A
  PERO TU PRESENCIA FUE
                        D
  IGUAL QUE UNA  CANCION
            Bm
  COMO UNA CANCION SOÑADA
         F#m
  EN EL FONDO DEL MAR
          Bm
  Y MI SOLEDAD AMARGA
         F#m
  SE QUEMO EN TU PIEL
           G        Gm
  AL TOCARTE Y AL SENTIRTE
          A   D
  NENA REVIVI.

ESTA ROLA ES PARA TODA LA BANDOTA Y ESCUCHEN ROCK URBANO Y NACIONAL
ES EL CHIDO Y YA NO SE DROGUEN LUEGO LES MANDO UNAS DE LIRAN ROLL,DEL
PERRO CALLEJERO Y OTROS GRUPOS.
Suggest correction
Give kudos to tab author, rate the tab!
1 2 3 4 5
comments
print report bad tab
guest
You may want to rate the tab now too:
select rating
Wanna post a correction for this tab? Suggest correction