Oops, an error
Loading. Please wait.

Viva Zapata Chords

110 views 3 this week
no commentswrite comment
1 2 3 4 5
3 more votes to show rating
add to favorites
launch autoscroll
font size
0
reset
transpose
0
reset
display chords
guitar tuner
×
Best way to learn
"Viva Zapata"
Autoscroll
slow
fast
+/-
esc
set tempo
stop
intro 

1-2--------------------------
2-2-----------2--------------
3---4-2-4-2-4---4-4----2-----
4--------------------4----4-2
5----------------------------
6----------------------------

#              B
Debajo de las ruinas 
        F#
de mi patria un 

canto surge 
         B         F#  
de los místicos escombros 
C#                 
cansados de la esclavitud  
              
cansados de la explotación 
             F#
del terra teniente 
B             F#   
un canto a zapata 
              B        F#
insolubles aflicciones en los montes 
                   B          
en la selva no se escuchan ya los 
F#     C#  
trinos y en medio de este dolor 

es seña de triunfo gritar ¡viva zapata!  

Sigue, sigue y sigue la masacre 

los muertos inundan de sangre los ríos 

y a si toda la canció

esto es en medio de la canción

1-6-4-2-4-----6-6-6-4-2-2
2---------2-2------------
3------------------------
4------------------------
5------------------------
6------------------------
Suggest correction
Give kudos to tab author, rate the tab!
1 2 3 4 5
comments
print report bad tab
guest
You may want to rate the tab now too:
select rating
Wanna post a correction for this tab? Suggest correction