Oops, an error
Loading. Please wait.

Para Sa Yo tab

version 1
version 1

Whole song

2,677 views 12 this week
no commentswrite comment
1 2 3 4 5
2 more votes to show rating
add to favorites
×
Save as Personal and add changes to this tab that will be seen only by you. Learn more ›
×
You can save this tab as Personal to edit and correct it or add notes. All changes will be seen only by you. Learn more »
launch autoscroll
font size
0
reset
how to read this tab
guitar tuner
edit
Autoscroll
slow
fast
+/-
esc
set tempo
stop
Hi po! Tabs by Karl Pascua :) (The way I play it)
Sorry if its wrong. Just made this chords after the song came out :)
twitter :@karltosis
facebook: Karl Pascua
IG: karlmikel

Juan Karlos Labajo - Para Sa'yo
Tabs and Chords (By ear) 
Capo on 2nd fret

TABS (On how I play it)

INTRO:
First CHORUS:
      -G-                 -D-                 -E-           -C-
e---x--x--3--3-|---x--x--3--3------2--2|---x--x--3--3-|-----2------|
B---x--x--3--3-|---x--x--3--3------3--3|---x--x--3--3-|-----3------|
G---0--0-------|---0--0------0--0------|---0--0-------|-----0------|
D---0--0-------|---0--0------0--0------|---0--0-------|-----0------|
A---0--0-------|---0--0------0--0------|---2--2-------|-----3------|
E---3--3-------|---2--2------2--2------|---x--x-------|-----x------|
     (2x)                                     (2x)


For the VERSE, just repeat the tabs on the intro EXCEPT the -C- chord will be changed to:

            -C-
e---x--x--3--3--------2--2|
B---x--x--3--3--------3--3|
G---0--0--------0--0------|
D---0--0--------0--0------|
A---3--3--------3--3------|
E---x--x--------x--x------|

Same thing goes on the other CHORUSES

BRIDGE: 
   
 -Em-          -D-                    Em                Cadd9
e-----3----|---3---|             Wag nang malungkot kalimutan ang galit  
B-----3----|---3---|                   Em                D 
G-----0----|---2---|             Na nadarama bibigyan kita ng halaga
D-----2----|---0---|                   Em                Cadd9
A-----2----|---0---|             Wag nang umiyak hindi kita pababayaan
E-----x----|---0---|                Em                 D (Down, up, up, down, up, up, down)
                                 Pangako andito lang ako ooohh


THATS ALL! THANKS! AND YOUR WELCOME! :D
   

            
            
Suggest correction
Creating personal tab
Creating personal tab
You can edit any tab online and save it as your Personal.

You can edit, replace or remove any tab part or add personal notes – all changes will be seen only by you.

Personal tabs can be accessed anytime from any device, even offline.
Learn more »
Give kudos to tab author, rate the tab!
1 2 3 4 5
comments
print report bad tab
guest
You may want to rate the tab now too:
select rating
Wanna post a correction for this tab? Suggest correction