Oops, an error
Loading. Please wait.

Amapola Tab

version 2
version 2

Whole song

157 views 1 this week
no commentswrite comment
1 2 3 4 5
3 more votes to show rating
add to favorites
launch autoscroll
font size
0
reset
how to read this tab
guitar tuner
×
Best way to learn
"Amapola"
Autoscroll
slow
fast
+/-
esc
set tempo
stop
Antes que nada, ESta canción, la bajé de Iván Díaz
(elbronx@ que hizo muy buen trabajo, 
pero estuve en desacuerdo en cuanto a como sonaba, 
hice mi versión, la cual creo que se apega mejor al 
sonido original. 
TRaté de hacer esto lo más facil posible, 
el # de la cuerda esta invertido, o sea, 
va en este orden pero hacia abajo, 1,2,3,4,5,6, 
y cuando veas dos numeros alineados, 
los tocas al mismo tiempo.


Acordes:
A         : 000220
Bm        : 24430
*Bm2       : 023430
*este no se como se llama pero ha de ser pariente de si menor


Intro (x2)

 A                    Bm                Bm2                  A
|----------0-------|----------0----|-------0-----|----------0-------|
|0---2--------2----|3----------3---|3--------3---|0---2--------2----|
|--------2-------2-|----4--------4-|---4-------4-|--------2-------2-|
|------------------|------4--------|-----3-------|------------------|
|0-----------------|2--------------|2------------|0-----------------|
|------------------|---------------|-------------|------------------|

Verso:

Abre las hojas del ..viento mi vida....ponle una montura al rio
|9----9-----9---9-9|7-----7----7---7-7|5----5---5----5-5|4----4----4----4-4|
|------------------|------------------|-----------------|------------------|
|---9----9---9-----|---9----9----9----|---7---7---7-----|---6----6----6----|
|7-----------------|8-----------------|4----------------|3-----------------|
|------------------|------------------|-----------------|------------------|
|------------------|------------------|-----------------|------------------|

cabalga y.........si te da frio..te arropas con la piel de las estrellas
|3----3----3---3-3|2---2---2---2-2|1---1---1---1-1|0----0----0---0-0-|
|--2----2----2----|--0---0---0----|--0---0---0----|------------------|
|-----------------|---------------|---------------|---2---2----2-----|
|2----------------|1--------------|0--------------|------------------|
|-----------------|---------------|---------------|0-----------------|
|-----------------|---------------|---------------|------------------|

De almohada la luna lle...na mi vida....y de sueño el amor mio
|0-----0----0----0-0|-------------------|0---2---4-2-0|
|-------------------|3-----3---3----3-3-|-------------|
|---2----2----2-----|---2----2---2------|-------------|
|-------------------|-------------------|-------------|
|3------------------|-------------------|-------------|
|-------------------|2------------------|-------------|


como el intro
Coro: (2 veces, creo)
Y una amapola....     me lo dijo ayer...que te voy a ver.. que te voy a ver 
|----------0-------|----------0----|-------0-----|----------0-------|
|0---2--------2----|3----------3---|3--------3---|0---2--------2----|
|--------2-------2-|----4--------4-|---4-------4-|--------2-------2-|
|------------------|------4--------|-----3-------|------------------|
|0-----------------|2--------------|2------------|0-----------------|
|------------------|---------------|-------------|------------------|

Y un arcoiris        me pinto la piel   para amanecer      contigo
|----------0-------|----------0----|-------0-----|----------0-------|
|0---2--------2----|3----------3---|3--------3---|0---2--------2----|
|--------2-------2-|----4--------4-|---4-------4-|--------2-------2-|
|------------------|------4--------|-----3-------|------------------|
|0-----------------|2--------------|2------------|0-----------------|
|------------------|---------------|-------------|------------------|

igual que lo anterior el verso siguiente:

Cierra la noche y el dia, mi vida
para que todo sea nuestro,
y una gran fuga de besos.
se pose sobre tu boca,
y que el trinar de las rosas, mi vida
te digan cuanto te quiero

Coro...
Suggest correction
Give kudos to tab author, rate the tab!
1 2 3 4 5
comments
print report bad tab
guest
You may want to rate the tab now too:
select rating
Wanna post a correction for this tab? Suggest correction